ISO-10303-21;
HEADER;
/* Generated by software containing ST-Developer
 * from STEP Tools, Inc. (www.steptools.com) 
 */

FILE_DESCRIPTION(
/* description */ (''),
/* implementation_level */ '2;1');

FILE_NAME(
/* name */ 
'J:\\AM_Zeichnung\\Inventor\\PROJEKT_STAMMORDNER\\Druckmittler\\Druckm
ittler_Baugruppen\\MD50\\Step\\solid\\31307W.stp',
/* time_stamp */ '2018-02-05T11:54:26+01:00',
/* author */ ('acgl'),
/* organization */ (''),
/* preprocessor_version */ 'ST-DEVELOPER v15.6',
/* originating_system */ 'Autodesk Inventor 2015',
/* authorisation */ '');

FILE_SCHEMA (('AUTOMOTIVE_DESIGN { 1 0 10303 214 3 1 1 }'));
ENDSEC;

DATA;
#10=MECHANICAL_DESIGN_GEOMETRIC_PRESENTATION_REPRESENTATION('',(#155,#156,
#159,#160,#162,#157,#158,#161,#163,#167,#164,#170,#168,#169,#165,#166),
#324);
#11=SHAPE_REPRESENTATION_RELATIONSHIP('SRR','None',#334,#12);
#12=ADVANCED_BREP_SHAPE_REPRESENTATION($,(#13),#323);
#13=MANIFOLD_SOLID_BREP('Volumenk\X\F6rper1',#186);
#14=TOROIDAL_SURFACE('',#199,1.3393721719165,0.0499999999999967);
#15=CYLINDRICAL_SURFACE('',#193,2.92115);
#16=CYLINDRICAL_SURFACE('',#203,0.505);
#17=CYLINDRICAL_SURFACE('',#207,0.275);
#18=CYLINDRICAL_SURFACE('',#210,1.8);
#19=CYLINDRICAL_SURFACE('',#214,2.29);
#20=FACE_BOUND('',#53,.T.);
#21=FACE_BOUND('',#55,.T.);
#22=FACE_BOUND('',#57,.T.);
#23=FACE_BOUND('',#59,.T.);
#24=FACE_BOUND('',#61,.T.);
#25=FACE_BOUND('',#63,.T.);
#26=FACE_BOUND('',#65,.T.);
#27=FACE_BOUND('',#67,.T.);
#28=FACE_BOUND('',#69,.T.);
#29=FACE_BOUND('',#72,.T.);
#30=FACE_BOUND('',#74,.T.);
#31=FACE_BOUND('',#76,.T.);
#32=FACE_BOUND('',#78,.T.);
#33=CONICAL_SURFACE('',#190,2.79615,45.);
#34=CONICAL_SURFACE('',#197,2.14042950203514,66.);
#35=CONICAL_SURFACE('',#216,2.38378221735089,15.);
#36=FACE_OUTER_BOUND('',#51,.T.);
#37=FACE_OUTER_BOUND('',#52,.T.);
#38=FACE_OUTER_BOUND('',#54,.T.);
#39=FACE_OUTER_BOUND('',#56,.T.);
#40=FACE_OUTER_BOUND('',#58,.T.);
#41=FACE_OUTER_BOUND('',#60,.T.);
#42=FACE_OUTER_BOUND('',#62,.T.);
#43=FACE_OUTER_BOUND('',#64,.T.);
#44=FACE_OUTER_BOUND('',#66,.T.);
#45=FACE_OUTER_BOUND('',#68,.T.);
#46=FACE_OUTER_BOUND('',#70,.T.);
#47=FACE_OUTER_BOUND('',#71,.T.);
#48=FACE_OUTER_BOUND('',#73,.T.);
#49=FACE_OUTER_BOUND('',#75,.T.);
#50=FACE_OUTER_BOUND('',#77,.T.);
#51=EDGE_LOOP('',(#121));
#52=EDGE_LOOP('',(#122));
#53=EDGE_LOOP('',(#123));
#54=EDGE_LOOP('',(#124));
#55=EDGE_LOOP('',(#125));
#56=EDGE_LOOP('',(#126));
#57=EDGE_LOOP('',(#127));
#58=EDGE_LOOP('',(#128));
#59=EDGE_LOOP('',(#129));
#60=EDGE_LOOP('',(#130));
#61=EDGE_LOOP('',(#131));
#62=EDGE_LOOP('',(#132));
#63=EDGE_LOOP('',(#133));
#64=EDGE_LOOP('',(#134));
#65=EDGE_LOOP('',(#135));
#66=EDGE_LOOP('',(#136));
#67=EDGE_LOOP('',(#137));
#68=EDGE_LOOP('',(#138));
#69=EDGE_LOOP('',(#139));
#70=EDGE_LOOP('',(#140));
#71=EDGE_LOOP('',(#141));
#72=EDGE_LOOP('',(#142));
#73=EDGE_LOOP('',(#143));
#74=EDGE_LOOP('',(#144));
#75=EDGE_LOOP('',(#145));
#76=EDGE_LOOP('',(#146));
#77=EDGE_LOOP('',(#147));
#78=EDGE_LOOP('',(#148));
#79=CIRCLE('',#189,1.8);
#80=CIRCLE('',#191,2.67115);
#81=CIRCLE('',#192,2.92115);
#82=CIRCLE('',#194,2.92115);
#83=CIRCLE('',#196,2.47756443470179);
#84=CIRCLE('',#198,1.35970900407029);
#85=CIRCLE('',#200,1.3393721719165);
#86=CIRCLE('',#202,0.505);
#87=CIRCLE('',#204,0.505);
#88=CIRCLE('',#206,0.275);
#89=CIRCLE('',#208,0.275);
#90=CIRCLE('',#211,1.8);
#91=CIRCLE('',#213,2.29);
#92=CIRCLE('',#215,2.29);
#93=VERTEX_POINT('',#279);
#94=VERTEX_POINT('',#282);
#95=VERTEX_POINT('',#284);
#96=VERTEX_POINT('',#287);
#97=VERTEX_POINT('',#290);
#98=VERTEX_POINT('',#293);
#99=VERTEX_POINT('',#296);
#100=VERTEX_POINT('',#299);
#101=VERTEX_POINT('',#302);
#102=VERTEX_POINT('',#305);
#103=VERTEX_POINT('',#308);
#104=VERTEX_POINT('',#312);
#105=VERTEX_POINT('',#315);
#106=VERTEX_POINT('',#318);
#107=EDGE_CURVE('',#93,#93,#79,.T.);
#108=EDGE_CURVE('',#94,#94,#80,.T.);
#109=EDGE_CURVE('',#95,#95,#81,.T.);
#110=EDGE_CURVE('',#96,#96,#82,.T.);
#111=EDGE_CURVE('',#97,#97,#83,.T.);
#112=EDGE_CURVE('',#98,#98,#84,.T.);
#113=EDGE_CURVE('',#99,#99,#85,.T.);
#114=EDGE_CURVE('',#100,#100,#86,.T.);
#115=EDGE_CURVE('',#101,#101,#87,.T.);
#116=EDGE_CURVE('',#102,#102,#88,.T.);
#117=EDGE_CURVE('',#103,#103,#89,.T.);
#118=EDGE_CURVE('',#104,#104,#90,.T.);
#119=EDGE_CURVE('',#105,#105,#91,.T.);
#120=EDGE_CURVE('',#106,#106,#92,.T.);
#121=ORIENTED_EDGE('',*,*,#107,.F.);
#122=ORIENTED_EDGE('',*,*,#108,.T.);
#123=ORIENTED_EDGE('',*,*,#109,.T.);
#124=ORIENTED_EDGE('',*,*,#110,.F.);
#125=ORIENTED_EDGE('',*,*,#109,.F.);
#126=ORIENTED_EDGE('',*,*,#108,.F.);
#127=ORIENTED_EDGE('',*,*,#111,.T.);
#128=ORIENTED_EDGE('',*,*,#112,.F.);
#129=ORIENTED_EDGE('',*,*,#110,.T.);
#130=ORIENTED_EDGE('',*,*,#113,.F.);
#131=ORIENTED_EDGE('',*,*,#112,.T.);
#132=ORIENTED_EDGE('',*,*,#113,.T.);
#133=ORIENTED_EDGE('',*,*,#114,.F.);
#134=ORIENTED_EDGE('',*,*,#115,.F.);
#135=ORIENTED_EDGE('',*,*,#114,.T.);
#136=ORIENTED_EDGE('',*,*,#115,.T.);
#137=ORIENTED_EDGE('',*,*,#116,.F.);
#138=ORIENTED_EDGE('',*,*,#117,.F.);
#139=ORIENTED_EDGE('',*,*,#116,.T.);
#140=ORIENTED_EDGE('',*,*,#117,.T.);
#141=ORIENTED_EDGE('',*,*,#118,.F.);
#142=ORIENTED_EDGE('',*,*,#107,.T.);
#143=ORIENTED_EDGE('',*,*,#119,.F.);
#144=ORIENTED_EDGE('',*,*,#118,.T.);
#145=ORIENTED_EDGE('',*,*,#120,.F.);
#146=ORIENTED_EDGE('',*,*,#119,.T.);
#147=ORIENTED_EDGE('',*,*,#111,.F.);
#148=ORIENTED_EDGE('',*,*,#120,.T.);
#149=PLANE('',#188);
#150=PLANE('',#195);
#151=PLANE('',#201);
#152=PLANE('',#205);
#153=PLANE('',#209);
#154=PLANE('',#212);
#155=STYLED_ITEM('',(#344),#171);
#156=STYLED_ITEM('',(#344),#172);
#157=STYLED_ITEM('',(#344),#173);
#158=STYLED_ITEM('',(#344),#174);
#159=STYLED_ITEM('',(#344),#175);
#160=STYLED_ITEM('',(#344),#176);
#161=STYLED_ITEM('',(#344),#177);
#162=STYLED_ITEM('',(#344),#178);
#163=STYLED_ITEM('',(#344),#179);
#164=STYLED_ITEM('',(#344),#180);
#165=STYLED_ITEM('',(#344),#181);
#166=STYLED_ITEM('',(#344),#182);
#167=STYLED_ITEM('',(#344),#183);
#168=STYLED_ITEM('',(#344),#184);
#169=STYLED_ITEM('',(#344),#185);
#170=STYLED_ITEM('',(#343),#13);
#171=ADVANCED_FACE('',(#36),#149,.F.);
#172=ADVANCED_FACE('',(#37,#20),#33,.T.);
#173=ADVANCED_FACE('',(#38,#21),#15,.T.);
#174=ADVANCED_FACE('',(#39,#22),#150,.T.);
#175=ADVANCED_FACE('',(#40,#23),#34,.T.);
#176=ADVANCED_FACE('',(#41,#24),#14,.T.);
#177=ADVANCED_FACE('',(#42,#25),#151,.T.);
#178=ADVANCED_FACE('',(#43,#26),#16,.F.);
#179=ADVANCED_FACE('',(#44,#27),#152,.T.);
#180=ADVANCED_FACE('',(#45,#28),#17,.F.);
#181=ADVANCED_FACE('',(#46),#153,.T.);
#182=ADVANCED_FACE('',(#47,#29),#18,.T.);
#183=ADVANCED_FACE('',(#48,#30),#154,.T.);
#184=ADVANCED_FACE('',(#49,#31),#19,.F.);
#185=ADVANCED_FACE('',(#50,#32),#35,.F.);
#186=CLOSED_SHELL('',(#171,#172,#173,#174,#175,#176,#177,#178,#179,#180,
#181,#182,#183,#184,#185));
#187=AXIS2_PLACEMENT_3D('placement',#277,#217,#218);
#188=AXIS2_PLACEMENT_3D('',#278,#219,#220);
#189=AXIS2_PLACEMENT_3D('',#280,#221,#222);
#190=AXIS2_PLACEMENT_3D('',#281,#223,#224);
#191=AXIS2_PLACEMENT_3D('',#283,#225,#226);
#192=AXIS2_PLACEMENT_3D('',#285,#227,#228);
#193=AXIS2_PLACEMENT_3D('',#286,#229,#230);
#194=AXIS2_PLACEMENT_3D('',#288,#231,#232);
#195=AXIS2_PLACEMENT_3D('',#289,#233,#234);
#196=AXIS2_PLACEMENT_3D('',#291,#235,#236);
#197=AXIS2_PLACEMENT_3D('',#292,#237,#238);
#198=AXIS2_PLACEMENT_3D('',#294,#239,#240);
#199=AXIS2_PLACEMENT_3D('',#295,#241,#242);
#200=AXIS2_PLACEMENT_3D('',#297,#243,#244);
#201=AXIS2_PLACEMENT_3D('',#298,#245,#246);
#202=AXIS2_PLACEMENT_3D('',#300,#247,#248);
#203=AXIS2_PLACEMENT_3D('',#301,#249,#250);
#204=AXIS2_PLACEMENT_3D('',#303,#251,#252);
#205=AXIS2_PLACEMENT_3D('',#304,#253,#254);
#206=AXIS2_PLACEMENT_3D('',#306,#255,#256);
#207=AXIS2_PLACEMENT_3D('',#307,#257,#258);
#208=AXIS2_PLACEMENT_3D('',#309,#259,#260);
#209=AXIS2_PLACEMENT_3D('',#310,#261,#262);
#210=AXIS2_PLACEMENT_3D('',#311,#263,#264);
#211=AXIS2_PLACEMENT_3D('',#313,#265,#266);
#212=AXIS2_PLACEMENT_3D('',#314,#267,#268);
#213=AXIS2_PLACEMENT_3D('',#316,#269,#270);
#214=AXIS2_PLACEMENT_3D('',#317,#271,#272);
#215=AXIS2_PLACEMENT_3D('',#319,#273,#274);
#216=AXIS2_PLACEMENT_3D('',#320,#275,#276);
#217=DIRECTION('axis',(0.,0.,1.));
#218=DIRECTION('refdir',(1.,0.,0.));
#219=DIRECTION('center_axis',(0.,1.,0.));
#220=DIRECTION('ref_axis',(0.,0.,1.));
#221=DIRECTION('center_axis',(0.,1.,0.));
#222=DIRECTION('ref_axis',(1.,0.,0.));
#223=DIRECTION('center_axis',(0.,1.,0.));
#224=DIRECTION('ref_axis',(-1.,0.,0.));
#225=DIRECTION('center_axis',(0.,1.,0.));
#226=DIRECTION('ref_axis',(-1.,0.,0.));
#227=DIRECTION('center_axis',(0.,-1.,0.));
#228=DIRECTION('ref_axis',(-1.,0.,0.));
#229=DIRECTION('center_axis',(0.,1.,0.));
#230=DIRECTION('ref_axis',(1.,0.,0.));
#231=DIRECTION('center_axis',(0.,1.,0.));
#232=DIRECTION('ref_axis',(1.,0.,0.));
#233=DIRECTION('center_axis',(0.,-1.,0.));
#234=DIRECTION('ref_axis',(0.,0.,-1.));
#235=DIRECTION('center_axis',(0.,1.,0.));
#236=DIRECTION('ref_axis',(1.,0.,0.));
#237=DIRECTION('center_axis',(0.,-1.,0.));
#238=DIRECTION('ref_axis',(1.,0.,0.));
#239=DIRECTION('center_axis',(0.,1.,0.));
#240=DIRECTION('ref_axis',(1.,0.,0.));
#241=DIRECTION('center_axis',(0.,1.,0.));
#242=DIRECTION('ref_axis',(0.,0.,1.));
#243=DIRECTION('center_axis',(0.,1.,0.));
#244=DIRECTION('ref_axis',(1.,0.,0.));
#245=DIRECTION('center_axis',(0.,1.,0.));
#246=DIRECTION('ref_axis',(0.,0.,1.));
#247=DIRECTION('center_axis',(0.,1.,0.));
#248=DIRECTION('ref_axis',(1.,0.,0.));
#249=DIRECTION('center_axis',(0.,1.,0.));
#250=DIRECTION('ref_axis',(1.,0.,0.));
#251=DIRECTION('center_axis',(0.,1.,0.));
#252=DIRECTION('ref_axis',(1.,0.,0.));
#253=DIRECTION('center_axis',(0.,1.,0.));
#254=DIRECTION('ref_axis',(0.,0.,1.));
#255=DIRECTION('center_axis',(0.,1.,0.));
#256=DIRECTION('ref_axis',(1.,0.,0.));
#257=DIRECTION('center_axis',(0.,1.,0.));
#258=DIRECTION('ref_axis',(1.,0.,0.));
#259=DIRECTION('center_axis',(0.,1.,0.));
#260=DIRECTION('ref_axis',(1.,0.,0.));
#261=DIRECTION('center_axis',(0.,1.,0.));
#262=DIRECTION('ref_axis',(0.,0.,1.));
#263=DIRECTION('center_axis',(0.,1.,0.));
#264=DIRECTION('ref_axis',(1.,0.,0.));
#265=DIRECTION('center_axis',(0.,1.,0.));
#266=DIRECTION('ref_axis',(1.,0.,0.));
#267=DIRECTION('center_axis',(0.,-1.,0.));
#268=DIRECTION('ref_axis',(0.,0.,-1.));
#269=DIRECTION('center_axis',(0.,1.,0.));
#270=DIRECTION('ref_axis',(1.,0.,0.));
#271=DIRECTION('center_axis',(0.,1.,0.));
#272=DIRECTION('ref_axis',(1.,0.,0.));
#273=DIRECTION('center_axis',(0.,1.,0.));
#274=DIRECTION('ref_axis',(1.,0.,0.));
#275=DIRECTION('center_axis',(0.,-1.,0.));
#276=DIRECTION('ref_axis',(1.,0.,0.));
#277=CARTESIAN_POINT('',(0.,0.,0.));
#278=CARTESIAN_POINT('Origin',(0.,0.7,0.));
#279=CARTESIAN_POINT('',(1.8,0.7,0.));
#280=CARTESIAN_POINT('Origin',(0.,0.7,0.));
#281=CARTESIAN_POINT('Origin',(0.,0.125,0.));
#282=CARTESIAN_POINT('',(2.67115,0.,-3.27121529754245E-16));
#283=CARTESIAN_POINT('Origin',(0.,0.,0.));
#284=CARTESIAN_POINT('',(2.92115,0.25,3.57737699732929E-16));
#285=CARTESIAN_POINT('Origin',(0.,0.25,0.));
#286=CARTESIAN_POINT('Origin',(0.,0.700239475538746,0.));
#287=CARTESIAN_POINT('',(2.92115,1.40047895107749,0.));
#288=CARTESIAN_POINT('Origin',(0.,1.40047895107749,0.));
#289=CARTESIAN_POINT('Origin',(2.69935721735089,0.,0.));
#290=CARTESIAN_POINT('',(2.47756443470179,0.,0.));
#291=CARTESIAN_POINT('Origin',(0.,0.,0.));
#292=CARTESIAN_POINT('Origin',(0.,1.74807811197981,0.));
#293=CARTESIAN_POINT('',(1.35970900407029,2.09567727288213,0.));
#294=CARTESIAN_POINT('Origin',(0.,2.09567727288213,0.));
#295=CARTESIAN_POINT('Origin',(0.,2.05,0.));
#296=CARTESIAN_POINT('',(1.3393721719165,2.1,0.));
#297=CARTESIAN_POINT('Origin',(0.,2.1,0.));
#298=CARTESIAN_POINT('Origin',(0.922186085958249,2.1,0.));
#299=CARTESIAN_POINT('',(0.505,2.1,0.));
#300=CARTESIAN_POINT('Origin',(0.,2.1,0.));
#301=CARTESIAN_POINT('Origin',(0.,2.06,0.));
#302=CARTESIAN_POINT('',(0.505,2.02,0.));
#303=CARTESIAN_POINT('Origin',(0.,2.02,0.));
#304=CARTESIAN_POINT('Origin',(0.39,2.02,0.));
#305=CARTESIAN_POINT('',(0.275,2.02,0.));
#306=CARTESIAN_POINT('Origin',(0.,2.02,0.));
#307=CARTESIAN_POINT('Origin',(0.,1.97,0.));
#308=CARTESIAN_POINT('',(0.275,1.92,0.));
#309=CARTESIAN_POINT('Origin',(0.,1.92,0.));
#310=CARTESIAN_POINT('Origin',(0.2375,1.92,0.));
#311=CARTESIAN_POINT('Origin',(0.,0.875,0.));
#312=CARTESIAN_POINT('',(1.8,1.05,0.));
#313=CARTESIAN_POINT('Origin',(0.,1.05,0.));
#314=CARTESIAN_POINT('Origin',(2.045,1.05,0.));
#315=CARTESIAN_POINT('',(2.29,1.05,0.));
#316=CARTESIAN_POINT('Origin',(0.,1.05,0.));
#317=CARTESIAN_POINT('Origin',(0.,0.875,0.));
#318=CARTESIAN_POINT('',(2.29,0.7,0.));
#319=CARTESIAN_POINT('Origin',(0.,0.7,0.));
#320=CARTESIAN_POINT('Origin',(0.,0.35,0.));
#321=UNCERTAINTY_MEASURE_WITH_UNIT(LENGTH_MEASURE(0.001),#325,
'DISTANCE_ACCURACY_VALUE',
'Maximum model space distance between geometric entities at asserted c
onnectivities');
#322=UNCERTAINTY_MEASURE_WITH_UNIT(LENGTH_MEASURE(1.E-6),#326,
'DISTANCE_ACCURACY_VALUE',
'Maximum model space distance between geometric entities at asserted c
onnectivities');
#323=(
GEOMETRIC_REPRESENTATION_CONTEXT(3)
GLOBAL_UNCERTAINTY_ASSIGNED_CONTEXT((#321))
GLOBAL_UNIT_ASSIGNED_CONTEXT((#325,#329,#327))
REPRESENTATION_CONTEXT('','3D')
);
#324=(
GEOMETRIC_REPRESENTATION_CONTEXT(3)
GLOBAL_UNCERTAINTY_ASSIGNED_CONTEXT((#322))
GLOBAL_UNIT_ASSIGNED_CONTEXT((#326,#329,#327))
REPRESENTATION_CONTEXT('','3D')
);
#325=(
LENGTH_UNIT()
NAMED_UNIT(*)
SI_UNIT(.CENTI.,.METRE.)
);
#326=(
LENGTH_UNIT()
NAMED_UNIT(*)
SI_UNIT(.MILLI.,.METRE.)
);
#327=(
NAMED_UNIT(*)
SI_UNIT($,.STERADIAN.)
SOLID_ANGLE_UNIT()
);
#328=DIMENSIONAL_EXPONENTS(0.,0.,0.,0.,0.,0.,0.);
#329=(
CONVERSION_BASED_UNIT('degree',#331)
NAMED_UNIT(#328)
PLANE_ANGLE_UNIT()
);
#330=(
NAMED_UNIT(*)
PLANE_ANGLE_UNIT()
SI_UNIT($,.RADIAN.)
);
#331=PLANE_ANGLE_MEASURE_WITH_UNIT(PLANE_ANGLE_MEASURE(0.01745329252),#330);
#332=SHAPE_DEFINITION_REPRESENTATION(#333,#334);
#333=PRODUCT_DEFINITION_SHAPE('',$,#336);
#334=SHAPE_REPRESENTATION('',(#187),#323);
#335=PRODUCT_DEFINITION_CONTEXT('part definition',#340,'design');
#336=PRODUCT_DEFINITION('31307W','31307W',#337,#335);
#337=PRODUCT_DEFINITION_FORMATION('',$,#342);
#338=PRODUCT_RELATED_PRODUCT_CATEGORY('31307W','31307W',(#342));
#339=APPLICATION_PROTOCOL_DEFINITION('international standard',
'automotive_design',2009,#340);
#340=APPLICATION_CONTEXT(
'Core Data for Automotive Mechanical Design Process');
#341=PRODUCT_CONTEXT('part definition',#340,'mechanical');
#342=PRODUCT('31307W','31307W',$,(#341));
#343=PRESENTATION_STYLE_ASSIGNMENT((#345));
#344=PRESENTATION_STYLE_ASSIGNMENT((#346));
#345=SURFACE_STYLE_USAGE(.BOTH.,#347);
#346=SURFACE_STYLE_USAGE(.BOTH.,#348);
#347=SURFACE_SIDE_STYLE($,(#349));
#348=SURFACE_SIDE_STYLE($,(#350));
#349=SURFACE_STYLE_FILL_AREA(#351);
#350=SURFACE_STYLE_FILL_AREA(#352);
#351=FILL_AREA_STYLE($,(#353));
#352=FILL_AREA_STYLE($,(#354));
#353=FILL_AREA_STYLE_COLOUR($,#355);
#354=FILL_AREA_STYLE_COLOUR($,#356);
#355=COLOUR_RGB('',0.749019607843137,0.749019607843137,0.749019607843137);
#356=COLOUR_RGB('',0.549019607843137,0.549019607843137,0.592156862745098);
ENDSEC;
END-ISO-10303-21;
