ISO-10303-21;
HEADER;
/* Generated by software containing ST-Developer
 * from STEP Tools, Inc. (www.steptools.com) 
 */

FILE_DESCRIPTION(
/* description */ (''),
/* implementation_level */ '2;1');

FILE_NAME(
/* name */ 
'J:\\AM_Zeichnung\\Inventor\\PROJEKT_STAMMORDNER\\Importierte Komponen
ten\\31333W\\31399W.stp',
/* time_stamp */ '2018-02-06T10:15:17+01:00',
/* author */ ('acgl'),
/* organization */ (''),
/* preprocessor_version */ 'ST-DEVELOPER v15.6',
/* originating_system */ 'Autodesk Inventor 2015',
/* authorisation */ '');

FILE_SCHEMA (('AUTOMOTIVE_DESIGN { 1 0 10303 214 3 1 1 }'));
ENDSEC;

DATA;
#10=MECHANICAL_DESIGN_GEOMETRIC_PRESENTATION_REPRESENTATION('',(#215,#216,
#213,#220,#217,#224,#218,#214,#212,#211,#219,#225,#222,#223,#227,#226,#221,
#228),#422);
#11=SHAPE_REPRESENTATION_RELATIONSHIP('SRR','None',#432,#12);
#12=ADVANCED_BREP_SHAPE_REPRESENTATION($,(#13),#421);
#13=MANIFOLD_SOLID_BREP('Volumenk\X\F6rper1',#246);
#14=CONICAL_SURFACE('',#274,7.45,44.9999999999999);
#15=CONICAL_SURFACE('',#278,7.45,44.9999999999999);
#16=FACE_BOUND('',#67,.T.);
#17=FACE_BOUND('',#70,.T.);
#18=FACE_BOUND('',#72,.T.);
#19=FACE_BOUND('',#74,.T.);
#20=FACE_BOUND('',#76,.T.);
#21=FACE_BOUND('',#78,.T.);
#22=FACE_BOUND('',#80,.T.);
#23=FACE_BOUND('',#82,.T.);
#24=FACE_BOUND('',#84,.T.);
#25=FACE_BOUND('',#85,.T.);
#26=FACE_BOUND('',#86,.T.);
#27=FACE_BOUND('',#87,.T.);
#28=FACE_BOUND('',#88,.T.);
#29=FACE_BOUND('',#90,.T.);
#30=FACE_BOUND('',#92,.T.);
#31=FACE_BOUND('',#94,.T.);
#32=FACE_BOUND('',#96,.T.);
#33=FACE_BOUND('',#97,.T.);
#34=FACE_BOUND('',#98,.T.);
#35=FACE_BOUND('',#99,.T.);
#36=FACE_BOUND('',#100,.T.);
#37=FACE_BOUND('',#102,.T.);
#38=FACE_BOUND('',#104,.T.);
#39=CYLINDRICAL_SURFACE('',#250,2.4);
#40=CYLINDRICAL_SURFACE('',#254,1.);
#41=CYLINDRICAL_SURFACE('',#257,1.);
#42=CYLINDRICAL_SURFACE('',#260,1.);
#43=CYLINDRICAL_SURFACE('',#263,1.);
#44=CYLINDRICAL_SURFACE('',#266,0.275);
#45=CYLINDRICAL_SURFACE('',#270,0.504999999999995);
#46=CYLINDRICAL_SURFACE('',#276,7.5);
#47=CYLINDRICAL_SURFACE('',#282,4.59988052558827);
#48=FACE_OUTER_BOUND('',#65,.T.);
#49=FACE_OUTER_BOUND('',#66,.T.);
#50=FACE_OUTER_BOUND('',#68,.T.);
#51=FACE_OUTER_BOUND('',#69,.T.);
#52=FACE_OUTER_BOUND('',#71,.T.);
#53=FACE_OUTER_BOUND('',#73,.T.);
#54=FACE_OUTER_BOUND('',#75,.T.);
#55=FACE_OUTER_BOUND('',#77,.T.);
#56=FACE_OUTER_BOUND('',#79,.T.);
#57=FACE_OUTER_BOUND('',#81,.T.);
#58=FACE_OUTER_BOUND('',#83,.T.);
#59=FACE_OUTER_BOUND('',#89,.T.);
#60=FACE_OUTER_BOUND('',#91,.T.);
#61=FACE_OUTER_BOUND('',#93,.T.);
#62=FACE_OUTER_BOUND('',#95,.T.);
#63=FACE_OUTER_BOUND('',#101,.T.);
#64=FACE_OUTER_BOUND('',#103,.T.);
#65=EDGE_LOOP('',(#165));
#66=EDGE_LOOP('',(#166));
#67=EDGE_LOOP('',(#167));
#68=EDGE_LOOP('',(#168));
#69=EDGE_LOOP('',(#169));
#70=EDGE_LOOP('',(#170));
#71=EDGE_LOOP('',(#171));
#72=EDGE_LOOP('',(#172));
#73=EDGE_LOOP('',(#173));
#74=EDGE_LOOP('',(#174));
#75=EDGE_LOOP('',(#175));
#76=EDGE_LOOP('',(#176));
#77=EDGE_LOOP('',(#177));
#78=EDGE_LOOP('',(#178));
#79=EDGE_LOOP('',(#179));
#80=EDGE_LOOP('',(#180));
#81=EDGE_LOOP('',(#181));
#82=EDGE_LOOP('',(#182));
#83=EDGE_LOOP('',(#183));
#84=EDGE_LOOP('',(#184));
#85=EDGE_LOOP('',(#185));
#86=EDGE_LOOP('',(#186));
#87=EDGE_LOOP('',(#187));
#88=EDGE_LOOP('',(#188));
#89=EDGE_LOOP('',(#189));
#90=EDGE_LOOP('',(#190));
#91=EDGE_LOOP('',(#191));
#92=EDGE_LOOP('',(#192));
#93=EDGE_LOOP('',(#193));
#94=EDGE_LOOP('',(#194));
#95=EDGE_LOOP('',(#195));
#96=EDGE_LOOP('',(#196));
#97=EDGE_LOOP('',(#197));
#98=EDGE_LOOP('',(#198));
#99=EDGE_LOOP('',(#199));
#100=EDGE_LOOP('',(#200));
#101=EDGE_LOOP('',(#201));
#102=EDGE_LOOP('',(#202));
#103=EDGE_LOOP('',(#203));
#104=EDGE_LOOP('',(#204));
#105=CIRCLE('',#249,0.275);
#106=CIRCLE('',#251,2.4);
#107=CIRCLE('',#252,2.4);
#108=CIRCLE('',#255,1.);
#109=CIRCLE('',#256,1.);
#110=CIRCLE('',#258,1.);
#111=CIRCLE('',#259,1.);
#112=CIRCLE('',#261,1.);
#113=CIRCLE('',#262,1.);
#114=CIRCLE('',#264,1.);
#115=CIRCLE('',#265,1.);
#116=CIRCLE('',#267,0.275);
#117=CIRCLE('',#269,0.504999999999995);
#118=CIRCLE('',#271,0.504999999999995);
#119=CIRCLE('',#273,7.4);
#120=CIRCLE('',#275,7.5);
#121=CIRCLE('',#277,7.5);
#122=CIRCLE('',#279,7.4);
#123=CIRCLE('',#281,4.59988052558827);
#124=CIRCLE('',#283,4.59988052558827);
#125=VERTEX_POINT('',#363);
#126=VERTEX_POINT('',#366);
#127=VERTEX_POINT('',#368);
#128=VERTEX_POINT('',#372);
#129=VERTEX_POINT('',#374);
#130=VERTEX_POINT('',#377);
#131=VERTEX_POINT('',#379);
#132=VERTEX_POINT('',#382);
#133=VERTEX_POINT('',#384);
#134=VERTEX_POINT('',#387);
#135=VERTEX_POINT('',#389);
#136=VERTEX_POINT('',#392);
#137=VERTEX_POINT('',#395);
#138=VERTEX_POINT('',#398);
#139=VERTEX_POINT('',#401);
#140=VERTEX_POINT('',#404);
#141=VERTEX_POINT('',#407);
#142=VERTEX_POINT('',#410);
#143=VERTEX_POINT('',#413);
#144=VERTEX_POINT('',#416);
#145=EDGE_CURVE('',#125,#125,#105,.T.);
#146=EDGE_CURVE('',#126,#126,#106,.T.);
#147=EDGE_CURVE('',#127,#127,#107,.T.);
#148=EDGE_CURVE('',#128,#128,#108,.T.);
#149=EDGE_CURVE('',#129,#129,#109,.T.);
#150=EDGE_CURVE('',#130,#130,#110,.T.);
#151=EDGE_CURVE('',#131,#131,#111,.T.);
#152=EDGE_CURVE('',#132,#132,#112,.T.);
#153=EDGE_CURVE('',#133,#133,#113,.T.);
#154=EDGE_CURVE('',#134,#134,#114,.T.);
#155=EDGE_CURVE('',#135,#135,#115,.T.);
#156=EDGE_CURVE('',#136,#136,#116,.T.);
#157=EDGE_CURVE('',#137,#137,#117,.T.);
#158=EDGE_CURVE('',#138,#138,#118,.T.);
#159=EDGE_CURVE('',#139,#139,#119,.T.);
#160=EDGE_CURVE('',#140,#140,#120,.T.);
#161=EDGE_CURVE('',#141,#141,#121,.T.);
#162=EDGE_CURVE('',#142,#142,#122,.T.);
#163=EDGE_CURVE('',#143,#143,#123,.T.);
#164=EDGE_CURVE('',#144,#144,#124,.T.);
#165=ORIENTED_EDGE('',*,*,#145,.F.);
#166=ORIENTED_EDGE('',*,*,#146,.F.);
#167=ORIENTED_EDGE('',*,*,#147,.F.);
#168=ORIENTED_EDGE('',*,*,#146,.T.);
#169=ORIENTED_EDGE('',*,*,#148,.F.);
#170=ORIENTED_EDGE('',*,*,#149,.F.);
#171=ORIENTED_EDGE('',*,*,#150,.F.);
#172=ORIENTED_EDGE('',*,*,#151,.F.);
#173=ORIENTED_EDGE('',*,*,#152,.F.);
#174=ORIENTED_EDGE('',*,*,#153,.F.);
#175=ORIENTED_EDGE('',*,*,#154,.F.);
#176=ORIENTED_EDGE('',*,*,#155,.F.);
#177=ORIENTED_EDGE('',*,*,#156,.F.);
#178=ORIENTED_EDGE('',*,*,#145,.T.);
#179=ORIENTED_EDGE('',*,*,#157,.F.);
#180=ORIENTED_EDGE('',*,*,#156,.T.);
#181=ORIENTED_EDGE('',*,*,#158,.F.);
#182=ORIENTED_EDGE('',*,*,#157,.T.);
#183=ORIENTED_EDGE('',*,*,#159,.F.);
#184=ORIENTED_EDGE('',*,*,#149,.T.);
#185=ORIENTED_EDGE('',*,*,#151,.T.);
#186=ORIENTED_EDGE('',*,*,#153,.T.);
#187=ORIENTED_EDGE('',*,*,#155,.T.);
#188=ORIENTED_EDGE('',*,*,#158,.T.);
#189=ORIENTED_EDGE('',*,*,#160,.F.);
#190=ORIENTED_EDGE('',*,*,#159,.T.);
#191=ORIENTED_EDGE('',*,*,#161,.F.);
#192=ORIENTED_EDGE('',*,*,#160,.T.);
#193=ORIENTED_EDGE('',*,*,#162,.F.);
#194=ORIENTED_EDGE('',*,*,#161,.T.);
#195=ORIENTED_EDGE('',*,*,#162,.T.);
#196=ORIENTED_EDGE('',*,*,#148,.T.);
#197=ORIENTED_EDGE('',*,*,#150,.T.);
#198=ORIENTED_EDGE('',*,*,#152,.T.);
#199=ORIENTED_EDGE('',*,*,#154,.T.);
#200=ORIENTED_EDGE('',*,*,#163,.F.);
#201=ORIENTED_EDGE('',*,*,#164,.F.);
#202=ORIENTED_EDGE('',*,*,#163,.T.);
#203=ORIENTED_EDGE('',*,*,#164,.T.);
#204=ORIENTED_EDGE('',*,*,#147,.T.);
#205=PLANE('',#248);
#206=PLANE('',#253);
#207=PLANE('',#268);
#208=PLANE('',#272);
#209=PLANE('',#280);
#210=PLANE('',#284);
#211=STYLED_ITEM('',(#442),#229);
#212=STYLED_ITEM('',(#443),#230);
#213=STYLED_ITEM('',(#443),#231);
#214=STYLED_ITEM('',(#442),#232);
#215=STYLED_ITEM('',(#442),#233);
#216=STYLED_ITEM('',(#442),#234);
#217=STYLED_ITEM('',(#442),#235);
#218=STYLED_ITEM('',(#442),#236);
#219=STYLED_ITEM('',(#442),#237);
#220=STYLED_ITEM('',(#442),#238);
#221=STYLED_ITEM('',(#442),#239);
#222=STYLED_ITEM('',(#442),#240);
#223=STYLED_ITEM('',(#442),#241);
#224=STYLED_ITEM('',(#442),#242);
#225=STYLED_ITEM('',(#442),#243);
#226=STYLED_ITEM('',(#442),#244);
#227=STYLED_ITEM('',(#442),#245);
#228=STYLED_ITEM('',(#441),#13);
#229=ADVANCED_FACE('',(#48),#205,.F.);
#230=ADVANCED_FACE('',(#49,#16),#39,.T.);
#231=ADVANCED_FACE('',(#50),#206,.T.);
#232=ADVANCED_FACE('',(#51,#17),#40,.F.);
#233=ADVANCED_FACE('',(#52,#18),#41,.F.);
#234=ADVANCED_FACE('',(#53,#19),#42,.F.);
#235=ADVANCED_FACE('',(#54,#20),#43,.F.);
#236=ADVANCED_FACE('',(#55,#21),#44,.F.);
#237=ADVANCED_FACE('',(#56,#22),#207,.T.);
#238=ADVANCED_FACE('',(#57,#23),#45,.F.);
#239=ADVANCED_FACE('',(#58,#24,#25,#26,#27,#28),#208,.T.);
#240=ADVANCED_FACE('',(#59,#29),#14,.T.);
#241=ADVANCED_FACE('',(#60,#30),#46,.T.);
#242=ADVANCED_FACE('',(#61,#31),#15,.T.);
#243=ADVANCED_FACE('',(#62,#32,#33,#34,#35,#36),#209,.T.);
#244=ADVANCED_FACE('',(#63,#37),#47,.T.);
#245=ADVANCED_FACE('',(#64,#38),#210,.T.);
#246=CLOSED_SHELL('',(#229,#230,#231,#232,#233,#234,#235,#236,#237,#238,
#239,#240,#241,#242,#243,#244,#245));
#247=AXIS2_PLACEMENT_3D('placement',#361,#285,#286);
#248=AXIS2_PLACEMENT_3D('',#362,#287,#288);
#249=AXIS2_PLACEMENT_3D('',#364,#289,#290);
#250=AXIS2_PLACEMENT_3D('',#365,#291,#292);
#251=AXIS2_PLACEMENT_3D('',#367,#293,#294);
#252=AXIS2_PLACEMENT_3D('',#369,#295,#296);
#253=AXIS2_PLACEMENT_3D('',#370,#297,#298);
#254=AXIS2_PLACEMENT_3D('',#371,#299,#300);
#255=AXIS2_PLACEMENT_3D('',#373,#301,#302);
#256=AXIS2_PLACEMENT_3D('',#375,#303,#304);
#257=AXIS2_PLACEMENT_3D('',#376,#305,#306);
#258=AXIS2_PLACEMENT_3D('',#378,#307,#308);
#259=AXIS2_PLACEMENT_3D('',#380,#309,#310);
#260=AXIS2_PLACEMENT_3D('',#381,#311,#312);
#261=AXIS2_PLACEMENT_3D('',#383,#313,#314);
#262=AXIS2_PLACEMENT_3D('',#385,#315,#316);
#263=AXIS2_PLACEMENT_3D('',#386,#317,#318);
#264=AXIS2_PLACEMENT_3D('',#388,#319,#320);
#265=AXIS2_PLACEMENT_3D('',#390,#321,#322);
#266=AXIS2_PLACEMENT_3D('',#391,#323,#324);
#267=AXIS2_PLACEMENT_3D('',#393,#325,#326);
#268=AXIS2_PLACEMENT_3D('',#394,#327,#328);
#269=AXIS2_PLACEMENT_3D('',#396,#329,#330);
#270=AXIS2_PLACEMENT_3D('',#397,#331,#332);
#271=AXIS2_PLACEMENT_3D('',#399,#333,#334);
#272=AXIS2_PLACEMENT_3D('',#400,#335,#336);
#273=AXIS2_PLACEMENT_3D('',#402,#337,#338);
#274=AXIS2_PLACEMENT_3D('',#403,#339,#340);
#275=AXIS2_PLACEMENT_3D('',#405,#341,#342);
#276=AXIS2_PLACEMENT_3D('',#406,#343,#344);
#277=AXIS2_PLACEMENT_3D('',#408,#345,#346);
#278=AXIS2_PLACEMENT_3D('',#409,#347,#348);
#279=AXIS2_PLACEMENT_3D('',#411,#349,#350);
#280=AXIS2_PLACEMENT_3D('',#412,#351,#352);
#281=AXIS2_PLACEMENT_3D('',#414,#353,#354);
#282=AXIS2_PLACEMENT_3D('',#415,#355,#356);
#283=AXIS2_PLACEMENT_3D('',#417,#357,#358);
#284=AXIS2_PLACEMENT_3D('',#418,#359,#360);
#285=DIRECTION('axis',(0.,0.,1.));
#286=DIRECTION('refdir',(1.,0.,0.));
#287=DIRECTION('center_axis',(0.,-1.,0.));
#288=DIRECTION('ref_axis',(0.,0.,-1.));
#289=DIRECTION('center_axis',(0.,-1.,0.));
#290=DIRECTION('ref_axis',(1.,0.,0.));
#291=DIRECTION('center_axis',(-8.69705546559833E-17,-1.,9.48317654936685E-17));
#292=DIRECTION('ref_axis',(0.999238153652889,-8.32032903952026E-17,0.0390270711732876));
#293=DIRECTION('center_axis',(-8.69705546559833E-17,-1.,9.48317654936685E-17));
#294=DIRECTION('ref_axis',(0.999238153652889,-8.32032903952026E-17,0.0390270711732876));
#295=DIRECTION('center_axis',(0.,1.,0.));
#296=DIRECTION('ref_axis',(0.999238153652889,-8.32032903952026E-17,0.0390270711732876));
#297=DIRECTION('center_axis',(-8.69705546559833E-17,-1.,9.48317654936685E-17));
#298=DIRECTION('ref_axis',(0.0390270711732876,-9.80118763926896E-17,-0.999238153652889));
#299=DIRECTION('center_axis',(0.,-1.,0.));
#300=DIRECTION('ref_axis',(1.83697019872103E-16,0.,-1.));
#301=DIRECTION('center_axis',(0.,1.,0.));
#302=DIRECTION('ref_axis',(1.83697019872103E-16,0.,-1.));
#303=DIRECTION('center_axis',(0.,-1.,0.));
#304=DIRECTION('ref_axis',(1.83697019872103E-16,0.,-1.));
#305=DIRECTION('center_axis',(0.,-1.,0.));
#306=DIRECTION('ref_axis',(1.,0.,1.22464679914735E-16));
#307=DIRECTION('center_axis',(0.,1.,0.));
#308=DIRECTION('ref_axis',(1.,0.,1.22464679914735E-16));
#309=DIRECTION('center_axis',(0.,-1.,0.));
#310=DIRECTION('ref_axis',(1.,0.,1.22464679914735E-16));
#311=DIRECTION('center_axis',(0.,-1.,0.));
#312=DIRECTION('ref_axis',(-6.12323399573677E-17,0.,1.));
#313=DIRECTION('center_axis',(0.,1.,0.));
#314=DIRECTION('ref_axis',(-6.12323399573677E-17,0.,1.));
#315=DIRECTION('center_axis',(0.,-1.,0.));
#316=DIRECTION('ref_axis',(-6.12323399573677E-17,0.,1.));
#317=DIRECTION('center_axis',(0.,-1.,0.));
#318=DIRECTION('ref_axis',(-1.,0.,0.));
#319=DIRECTION('center_axis',(0.,1.,0.));
#320=DIRECTION('ref_axis',(-1.,0.,0.));
#321=DIRECTION('center_axis',(0.,-1.,0.));
#322=DIRECTION('ref_axis',(-1.,0.,0.));
#323=DIRECTION('center_axis',(0.,-1.,0.));
#324=DIRECTION('ref_axis',(1.,0.,0.));
#325=DIRECTION('center_axis',(0.,-1.,0.));
#326=DIRECTION('ref_axis',(1.,0.,0.));
#327=DIRECTION('center_axis',(0.,1.,0.));
#328=DIRECTION('ref_axis',(0.,0.,1.));
#329=DIRECTION('center_axis',(0.,-1.,0.));
#330=DIRECTION('ref_axis',(1.,0.,0.));
#331=DIRECTION('center_axis',(0.,-1.,0.));
#332=DIRECTION('ref_axis',(1.,0.,0.));
#333=DIRECTION('center_axis',(0.,-1.,0.));
#334=DIRECTION('ref_axis',(1.,0.,0.));
#335=DIRECTION('center_axis',(0.,1.,0.));
#336=DIRECTION('ref_axis',(0.,0.,1.));
#337=DIRECTION('center_axis',(0.,-1.,0.));
#338=DIRECTION('ref_axis',(1.,0.,0.));
#339=DIRECTION('center_axis',(0.,-1.,0.));
#340=DIRECTION('ref_axis',(1.,0.,0.));
#341=DIRECTION('center_axis',(0.,-1.,0.));
#342=DIRECTION('ref_axis',(1.,0.,0.));
#343=DIRECTION('center_axis',(0.,-1.,0.));
#344=DIRECTION('ref_axis',(1.,0.,0.));
#345=DIRECTION('center_axis',(0.,-1.,0.));
#346=DIRECTION('ref_axis',(1.,0.,0.));
#347=DIRECTION('center_axis',(0.,1.,0.));
#348=DIRECTION('ref_axis',(1.,0.,0.));
#349=DIRECTION('center_axis',(0.,-1.,0.));
#350=DIRECTION('ref_axis',(1.,0.,0.));
#351=DIRECTION('center_axis',(0.,-1.,0.));
#352=DIRECTION('ref_axis',(0.,0.,-1.));
#353=DIRECTION('center_axis',(0.,-1.,0.));
#354=DIRECTION('ref_axis',(1.,0.,0.));
#355=DIRECTION('center_axis',(0.,-1.,0.));
#356=DIRECTION('ref_axis',(1.,0.,0.));
#357=DIRECTION('center_axis',(0.,-1.,0.));
#358=DIRECTION('ref_axis',(1.,0.,0.));
#359=DIRECTION('center_axis',(0.,-1.,0.));
#360=DIRECTION('ref_axis',(0.,0.,-1.));
#361=CARTESIAN_POINT('',(0.,0.,0.));
#362=CARTESIAN_POINT('Origin',(0.,1.82,0.));
#363=CARTESIAN_POINT('',(0.275,1.82,0.));
#364=CARTESIAN_POINT('Origin',(0.,1.82,0.));
#365=CARTESIAN_POINT('Origin',(-1.10804876075876E-16,-0.00250073233236492,
-2.37079413734166E-19));
#366=CARTESIAN_POINT('',(2.39817156876693,-0.00500073233236507,0.09366497081589));
#367=CARTESIAN_POINT('Origin',(-1.11022302462516E-16,-0.00500073233236487,
0.));
#368=CARTESIAN_POINT('',(2.39817156876693,-7.32332365171659E-7,0.09366497081589));
#369=CARTESIAN_POINT('Origin',(-1.10587449689236E-16,-7.32332363050526E-7,
-4.74158827468514E-19));
#370=CARTESIAN_POINT('Origin',(2.33070028156017,-0.00500073233236506,0.0910297564594871));
#371=CARTESIAN_POINT('Origin',(6.025,2.,1.10677454472942E-15));
#372=CARTESIAN_POINT('',(6.025,0.159999999999997,1.));
#373=CARTESIAN_POINT('Origin',(6.025,0.159999999999997,1.10677454472942E-15));
#374=CARTESIAN_POINT('',(6.025,2.,1.));
#375=CARTESIAN_POINT('Origin',(6.025,2.,1.10677454472942E-15));
#376=CARTESIAN_POINT('Origin',(-7.3784969648628E-16,2.,6.025));
#377=CARTESIAN_POINT('',(-1.,0.159999999999997,6.025));
#378=CARTESIAN_POINT('Origin',(-7.3784969648628E-16,0.159999999999997,6.025));
#379=CARTESIAN_POINT('',(-1.,2.,6.025));
#380=CARTESIAN_POINT('Origin',(-7.3784969648628E-16,2.,6.025));
#381=CARTESIAN_POINT('Origin',(-6.025,2.,-3.6892484824314E-16));
#382=CARTESIAN_POINT('',(-6.025,0.159999999999997,-1.));
#383=CARTESIAN_POINT('Origin',(-6.025,0.159999999999997,-3.6892484824314E-16));
#384=CARTESIAN_POINT('',(-6.025,2.,-1.));
#385=CARTESIAN_POINT('Origin',(-6.025,2.,-3.6892484824314E-16));
#386=CARTESIAN_POINT('Origin',(0.,2.,-6.025));
#387=CARTESIAN_POINT('',(1.,0.159999999999997,-6.025));
#388=CARTESIAN_POINT('Origin',(0.,0.159999999999997,-6.025));
#389=CARTESIAN_POINT('',(1.,2.,-6.025));
#390=CARTESIAN_POINT('Origin',(0.,2.,-6.025));
#391=CARTESIAN_POINT('Origin',(0.,1.87,0.));
#392=CARTESIAN_POINT('',(0.275,1.92,0.));
#393=CARTESIAN_POINT('Origin',(0.,1.92,0.));
#394=CARTESIAN_POINT('Origin',(0.389999999999997,1.92,0.));
#395=CARTESIAN_POINT('',(0.504999999999995,1.92,0.));
#396=CARTESIAN_POINT('Origin',(0.,1.92,0.));
#397=CARTESIAN_POINT('Origin',(0.,1.96,0.));
#398=CARTESIAN_POINT('',(0.504999999999995,2.,0.));
#399=CARTESIAN_POINT('Origin',(0.,2.,0.));
#400=CARTESIAN_POINT('Origin',(3.9525,2.,0.));
#401=CARTESIAN_POINT('',(7.4,2.,0.));
#402=CARTESIAN_POINT('Origin',(0.,2.,0.));
#403=CARTESIAN_POINT('Origin',(0.,1.95,0.));
#404=CARTESIAN_POINT('',(7.5,1.9,0.));
#405=CARTESIAN_POINT('Origin',(0.,1.9,0.));
#406=CARTESIAN_POINT('Origin',(0.,1.08,0.));
#407=CARTESIAN_POINT('',(7.5,0.259999999999998,0.));
#408=CARTESIAN_POINT('Origin',(0.,0.259999999999998,0.));
#409=CARTESIAN_POINT('Origin',(0.,0.209999999999997,0.));
#410=CARTESIAN_POINT('',(7.4,0.159999999999997,0.));
#411=CARTESIAN_POINT('Origin',(0.,0.159999999999997,0.));
#412=CARTESIAN_POINT('Origin',(5.99994026279414,0.159999999999997,0.));
#413=CARTESIAN_POINT('',(4.59988052558827,0.159999999999997,0.));
#414=CARTESIAN_POINT('Origin',(0.,0.159999999999997,0.));
#415=CARTESIAN_POINT('Origin',(0.,0.0799996338338176,0.));
#416=CARTESIAN_POINT('',(4.59988052558827,-7.32332362215351E-7,0.));
#417=CARTESIAN_POINT('Origin',(0.,-7.32332362224364E-7,0.));
#418=CARTESIAN_POINT('Origin',(3.45394026279414,-7.32332363350897E-7,0.));
#419=UNCERTAINTY_MEASURE_WITH_UNIT(LENGTH_MEASURE(0.001),#423,
'DISTANCE_ACCURACY_VALUE',
'Maximum model space distance between geometric entities at asserted c
onnectivities');
#420=UNCERTAINTY_MEASURE_WITH_UNIT(LENGTH_MEASURE(1.E-6),#424,
'DISTANCE_ACCURACY_VALUE',
'Maximum model space distance between geometric entities at asserted c
onnectivities');
#421=(
GEOMETRIC_REPRESENTATION_CONTEXT(3)
GLOBAL_UNCERTAINTY_ASSIGNED_CONTEXT((#419))
GLOBAL_UNIT_ASSIGNED_CONTEXT((#423,#427,#425))
REPRESENTATION_CONTEXT('','3D')
);
#422=(
GEOMETRIC_REPRESENTATION_CONTEXT(3)
GLOBAL_UNCERTAINTY_ASSIGNED_CONTEXT((#420))
GLOBAL_UNIT_ASSIGNED_CONTEXT((#424,#427,#425))
REPRESENTATION_CONTEXT('','3D')
);
#423=(
LENGTH_UNIT()
NAMED_UNIT(*)
SI_UNIT(.CENTI.,.METRE.)
);
#424=(
LENGTH_UNIT()
NAMED_UNIT(*)
SI_UNIT(.MILLI.,.METRE.)
);
#425=(
NAMED_UNIT(*)
SI_UNIT($,.STERADIAN.)
SOLID_ANGLE_UNIT()
);
#426=DIMENSIONAL_EXPONENTS(0.,0.,0.,0.,0.,0.,0.);
#427=(
CONVERSION_BASED_UNIT('degree',#429)
NAMED_UNIT(#426)
PLANE_ANGLE_UNIT()
);
#428=(
NAMED_UNIT(*)
PLANE_ANGLE_UNIT()
SI_UNIT($,.RADIAN.)
);
#429=PLANE_ANGLE_MEASURE_WITH_UNIT(PLANE_ANGLE_MEASURE(0.01745329252),#428);
#430=SHAPE_DEFINITION_REPRESENTATION(#431,#432);
#431=PRODUCT_DEFINITION_SHAPE('',$,#434);
#432=SHAPE_REPRESENTATION('',(#247),#421);
#433=PRODUCT_DEFINITION_CONTEXT('part definition',#438,'design');
#434=PRODUCT_DEFINITION('31399W','31399W',#435,#433);
#435=PRODUCT_DEFINITION_FORMATION('',$,#440);
#436=PRODUCT_RELATED_PRODUCT_CATEGORY('31399W','31399W',(#440));
#437=APPLICATION_PROTOCOL_DEFINITION('international standard',
'automotive_design',2009,#438);
#438=APPLICATION_CONTEXT(
'Core Data for Automotive Mechanical Design Process');
#439=PRODUCT_CONTEXT('part definition',#438,'mechanical');
#440=PRODUCT('31399W','31399W',$,(#439));
#441=PRESENTATION_STYLE_ASSIGNMENT((#444));
#442=PRESENTATION_STYLE_ASSIGNMENT((#445));
#443=PRESENTATION_STYLE_ASSIGNMENT((#446));
#444=SURFACE_STYLE_USAGE(.BOTH.,#447);
#445=SURFACE_STYLE_USAGE(.BOTH.,#448);
#446=SURFACE_STYLE_USAGE(.BOTH.,#449);
#447=SURFACE_SIDE_STYLE($,(#450));
#448=SURFACE_SIDE_STYLE($,(#451));
#449=SURFACE_SIDE_STYLE($,(#452));
#450=SURFACE_STYLE_FILL_AREA(#453);
#451=SURFACE_STYLE_FILL_AREA(#454);
#452=SURFACE_STYLE_FILL_AREA(#455);
#453=FILL_AREA_STYLE($,(#456));
#454=FILL_AREA_STYLE($,(#457));
#455=FILL_AREA_STYLE($,(#458));
#456=FILL_AREA_STYLE_COLOUR($,#459);
#457=FILL_AREA_STYLE_COLOUR($,#460);
#458=FILL_AREA_STYLE_COLOUR($,#461);
#459=COLOUR_RGB('',0.749019607843137,0.749019607843137,0.749019607843137);
#460=COLOUR_RGB('',0.63921568627451,0.63921568627451,0.686274509803922);
#461=COLOUR_RGB('',0.549019607843137,0.549019607843137,0.592156862745098);
ENDSEC;
END-ISO-10303-21;
