ISO-10303-21;
HEADER;
/* Generated by software containing ST-Developer
 * from STEP Tools, Inc. (www.steptools.com) 
 */

FILE_DESCRIPTION(
/* description */ (''),
/* implementation_level */ '2;1');

FILE_NAME(
/* name */ 
'J:\\AM_Zeichnung\\Inventor\\PROJEKT_STAMMORDNER\\Druckmittler\\Druckm
ittler_Baugruppen\\MD70\\step\\solid\\A0012924.stp',
/* time_stamp */ '2018-02-05T13:38:03+01:00',
/* author */ ('acgl'),
/* organization */ (''),
/* preprocessor_version */ 'ST-DEVELOPER v15.6',
/* originating_system */ 'Autodesk Inventor 2015',
/* authorisation */ '');

FILE_SCHEMA (('AUTOMOTIVE_DESIGN { 1 0 10303 214 3 1 1 }'));
ENDSEC;

DATA;
#10=MECHANICAL_DESIGN_GEOMETRIC_PRESENTATION_REPRESENTATION('',(#13),#459);
#11=SHAPE_REPRESENTATION_RELATIONSHIP('SRR','None',#468,#12);
#12=ADVANCED_BREP_SHAPE_REPRESENTATION($,(#14),#458);
#13=STYLED_ITEM('',(#477),#14);
#14=MANIFOLD_SOLID_BREP('Volumenk\X\F6rper1',#268);
#15=CONICAL_SURFACE('',#276,9.,44.9999999999995);
#16=CONICAL_SURFACE('',#284,9.,45.0000000000008);
#17=CONICAL_SURFACE('',#285,9.,45.0000000000008);
#18=CONICAL_SURFACE('',#289,9.,44.9999999999995);
#19=CONICAL_SURFACE('',#290,11.5,45.0000000000001);
#20=CYLINDRICAL_SURFACE('',#274,11.75);
#21=CYLINDRICAL_SURFACE('',#279,8.75);
#22=CYLINDRICAL_SURFACE('',#287,8.75);
#23=CYLINDRICAL_SURFACE('',#293,16.75);
#24=CYLINDRICAL_SURFACE('',#297,11.75);
#25=FACE_BOUND('',#77,.T.);
#26=FACE_BOUND('',#78,.T.);
#27=FACE_BOUND('',#79,.T.);
#28=FACE_BOUND('',#81,.T.);
#29=FACE_BOUND('',#83,.T.);
#30=FACE_BOUND('',#85,.T.);
#31=FACE_BOUND('',#87,.T.);
#32=FACE_BOUND('',#88,.T.);
#33=FACE_BOUND('',#89,.T.);
#34=FACE_BOUND('',#91,.T.);
#35=FACE_BOUND('',#93,.T.);
#36=FACE_BOUND('',#95,.T.);
#37=FACE_BOUND('',#97,.T.);
#38=FACE_BOUND('',#99,.T.);
#39=FACE_BOUND('',#102,.T.);
#40=FACE_BOUND('',#104,.T.);
#41=FACE_BOUND('',#106,.T.);
#42=CIRCLE('',#271,9.25);
#43=CIRCLE('',#272,9.25);
#44=CIRCLE('',#273,11.75);
#45=CIRCLE('',#275,11.75);
#46=CIRCLE('',#277,8.75);
#47=CIRCLE('',#278,9.25);
#48=CIRCLE('',#280,8.75);
#49=CIRCLE('',#282,9.25);
#50=CIRCLE('',#283,16.75);
#51=CIRCLE('',#286,8.75);
#52=CIRCLE('',#288,8.75);
#53=CIRCLE('',#291,11.25);
#54=CIRCLE('',#294,16.75);
#55=CIRCLE('',#296,11.75);
#56=CIRCLE('',#298,11.75);
#57=FACE_OUTER_BOUND('',#76,.T.);
#58=FACE_OUTER_BOUND('',#80,.T.);
#59=FACE_OUTER_BOUND('',#82,.T.);
#60=FACE_OUTER_BOUND('',#84,.T.);
#61=FACE_OUTER_BOUND('',#86,.T.);
#62=FACE_OUTER_BOUND('',#90,.T.);
#63=FACE_OUTER_BOUND('',#92,.T.);
#64=FACE_OUTER_BOUND('',#94,.T.);
#65=FACE_OUTER_BOUND('',#96,.T.);
#66=FACE_OUTER_BOUND('',#98,.T.);
#67=FACE_OUTER_BOUND('',#100,.T.);
#68=FACE_OUTER_BOUND('',#101,.T.);
#69=FACE_OUTER_BOUND('',#103,.T.);
#70=FACE_OUTER_BOUND('',#105,.T.);
#71=FACE_OUTER_BOUND('',#107,.T.);
#72=FACE_OUTER_BOUND('',#108,.T.);
#73=FACE_OUTER_BOUND('',#109,.T.);
#74=FACE_OUTER_BOUND('',#110,.T.);
#75=FACE_OUTER_BOUND('',#111,.T.);
#76=EDGE_LOOP('',(#186,#187,#188,#189));
#77=EDGE_LOOP('',(#190));
#78=EDGE_LOOP('',(#191));
#79=EDGE_LOOP('',(#192));
#80=EDGE_LOOP('',(#193));
#81=EDGE_LOOP('',(#194));
#82=EDGE_LOOP('',(#195));
#83=EDGE_LOOP('',(#196));
#84=EDGE_LOOP('',(#197));
#85=EDGE_LOOP('',(#198));
#86=EDGE_LOOP('',(#199,#200,#201,#202));
#87=EDGE_LOOP('',(#203));
#88=EDGE_LOOP('',(#204));
#89=EDGE_LOOP('',(#205));
#90=EDGE_LOOP('',(#206));
#91=EDGE_LOOP('',(#207));
#92=EDGE_LOOP('',(#208));
#93=EDGE_LOOP('',(#209));
#94=EDGE_LOOP('',(#210));
#95=EDGE_LOOP('',(#211));
#96=EDGE_LOOP('',(#212));
#97=EDGE_LOOP('',(#213));
#98=EDGE_LOOP('',(#214));
#99=EDGE_LOOP('',(#215));
#100=EDGE_LOOP('',(#216));
#101=EDGE_LOOP('',(#217));
#102=EDGE_LOOP('',(#218));
#103=EDGE_LOOP('',(#219));
#104=EDGE_LOOP('',(#220));
#105=EDGE_LOOP('',(#221));
#106=EDGE_LOOP('',(#222));
#107=EDGE_LOOP('',(#223));
#108=EDGE_LOOP('',(#224,#225,#226,#227));
#109=EDGE_LOOP('',(#228,#229,#230,#231));
#110=EDGE_LOOP('',(#232,#233,#234,#235));
#111=EDGE_LOOP('',(#236,#237,#238,#239));
#112=LINE('',#390,#124);
#113=LINE('',#392,#125);
#114=LINE('',#394,#126);
#115=LINE('',#395,#127);
#116=LINE('',#416,#128);
#117=LINE('',#418,#129);
#118=LINE('',#420,#130);
#119=LINE('',#421,#131);
#120=LINE('',#449,#132);
#121=LINE('',#450,#133);
#122=LINE('',#452,#134);
#123=LINE('',#454,#135);
#124=VECTOR('',#308,45.);
#125=VECTOR('',#309,95.);
#126=VECTOR('',#310,45.);
#127=VECTOR('',#311,95.);
#128=VECTOR('',#334,95.);
#129=VECTOR('',#335,45.);
#130=VECTOR('',#336,95.);
#131=VECTOR('',#337,45.);
#132=VECTOR('',#376,28.);
#133=VECTOR('',#377,28.);
#134=VECTOR('',#380,28.);
#135=VECTOR('',#383,28.);
#136=VERTEX_POINT('',#388);
#137=VERTEX_POINT('',#389);
#138=VERTEX_POINT('',#391);
#139=VERTEX_POINT('',#393);
#140=VERTEX_POINT('',#396);
#141=VERTEX_POINT('',#398);
#142=VERTEX_POINT('',#400);
#143=VERTEX_POINT('',#403);
#144=VERTEX_POINT('',#406);
#145=VERTEX_POINT('',#408);
#146=VERTEX_POINT('',#411);
#147=VERTEX_POINT('',#414);
#148=VERTEX_POINT('',#415);
#149=VERTEX_POINT('',#417);
#150=VERTEX_POINT('',#419);
#151=VERTEX_POINT('',#422);
#152=VERTEX_POINT('',#424);
#153=VERTEX_POINT('',#428);
#154=VERTEX_POINT('',#431);
#155=VERTEX_POINT('',#435);
#156=VERTEX_POINT('',#439);
#157=VERTEX_POINT('',#442);
#158=VERTEX_POINT('',#445);
#159=EDGE_CURVE('',#136,#137,#112,.T.);
#160=EDGE_CURVE('',#138,#136,#113,.T.);
#161=EDGE_CURVE('',#139,#138,#114,.T.);
#162=EDGE_CURVE('',#137,#139,#115,.T.);
#163=EDGE_CURVE('',#140,#140,#42,.T.);
#164=EDGE_CURVE('',#141,#141,#43,.T.);
#165=EDGE_CURVE('',#142,#142,#44,.T.);
#166=EDGE_CURVE('',#143,#143,#45,.T.);
#167=EDGE_CURVE('',#144,#144,#46,.T.);
#168=EDGE_CURVE('',#145,#145,#47,.T.);
#169=EDGE_CURVE('',#146,#146,#48,.T.);
#170=EDGE_CURVE('',#147,#148,#116,.T.);
#171=EDGE_CURVE('',#148,#149,#117,.T.);
#172=EDGE_CURVE('',#149,#150,#118,.T.);
#173=EDGE_CURVE('',#150,#147,#119,.T.);
#174=EDGE_CURVE('',#151,#151,#49,.T.);
#175=EDGE_CURVE('',#152,#152,#50,.T.);
#176=EDGE_CURVE('',#153,#153,#51,.T.);
#177=EDGE_CURVE('',#154,#154,#52,.T.);
#178=EDGE_CURVE('',#155,#155,#53,.T.);
#179=EDGE_CURVE('',#156,#156,#54,.T.);
#180=EDGE_CURVE('',#157,#157,#55,.T.);
#181=EDGE_CURVE('',#158,#158,#56,.T.);
#182=EDGE_CURVE('',#149,#137,#120,.T.);
#183=EDGE_CURVE('',#148,#136,#121,.T.);
#184=EDGE_CURVE('',#150,#139,#122,.T.);
#185=EDGE_CURVE('',#147,#138,#123,.T.);
#186=ORIENTED_EDGE('',*,*,#159,.F.);
#187=ORIENTED_EDGE('',*,*,#160,.F.);
#188=ORIENTED_EDGE('',*,*,#161,.F.);
#189=ORIENTED_EDGE('',*,*,#162,.F.);
#190=ORIENTED_EDGE('',*,*,#163,.F.);
#191=ORIENTED_EDGE('',*,*,#164,.F.);
#192=ORIENTED_EDGE('',*,*,#165,.T.);
#193=ORIENTED_EDGE('',*,*,#166,.F.);
#194=ORIENTED_EDGE('',*,*,#165,.F.);
#195=ORIENTED_EDGE('',*,*,#167,.T.);
#196=ORIENTED_EDGE('',*,*,#168,.T.);
#197=ORIENTED_EDGE('',*,*,#169,.F.);
#198=ORIENTED_EDGE('',*,*,#167,.F.);
#199=ORIENTED_EDGE('',*,*,#170,.T.);
#200=ORIENTED_EDGE('',*,*,#171,.T.);
#201=ORIENTED_EDGE('',*,*,#172,.T.);
#202=ORIENTED_EDGE('',*,*,#173,.T.);
#203=ORIENTED_EDGE('',*,*,#174,.F.);
#204=ORIENTED_EDGE('',*,*,#175,.T.);
#205=ORIENTED_EDGE('',*,*,#168,.F.);
#206=ORIENTED_EDGE('',*,*,#169,.T.);
#207=ORIENTED_EDGE('',*,*,#163,.T.);
#208=ORIENTED_EDGE('',*,*,#176,.T.);
#209=ORIENTED_EDGE('',*,*,#164,.T.);
#210=ORIENTED_EDGE('',*,*,#177,.F.);
#211=ORIENTED_EDGE('',*,*,#176,.F.);
#212=ORIENTED_EDGE('',*,*,#177,.T.);
#213=ORIENTED_EDGE('',*,*,#174,.T.);
#214=ORIENTED_EDGE('',*,*,#178,.T.);
#215=ORIENTED_EDGE('',*,*,#166,.T.);
#216=ORIENTED_EDGE('',*,*,#178,.F.);
#217=ORIENTED_EDGE('',*,*,#179,.F.);
#218=ORIENTED_EDGE('',*,*,#175,.F.);
#219=ORIENTED_EDGE('',*,*,#179,.T.);
#220=ORIENTED_EDGE('',*,*,#180,.F.);
#221=ORIENTED_EDGE('',*,*,#181,.F.);
#222=ORIENTED_EDGE('',*,*,#180,.T.);
#223=ORIENTED_EDGE('',*,*,#181,.T.);
#224=ORIENTED_EDGE('',*,*,#159,.T.);
#225=ORIENTED_EDGE('',*,*,#182,.F.);
#226=ORIENTED_EDGE('',*,*,#171,.F.);
#227=ORIENTED_EDGE('',*,*,#183,.T.);
#228=ORIENTED_EDGE('',*,*,#162,.T.);
#229=ORIENTED_EDGE('',*,*,#184,.F.);
#230=ORIENTED_EDGE('',*,*,#172,.F.);
#231=ORIENTED_EDGE('',*,*,#182,.T.);
#232=ORIENTED_EDGE('',*,*,#161,.T.);
#233=ORIENTED_EDGE('',*,*,#185,.F.);
#234=ORIENTED_EDGE('',*,*,#173,.F.);
#235=ORIENTED_EDGE('',*,*,#184,.T.);
#236=ORIENTED_EDGE('',*,*,#160,.T.);
#237=ORIENTED_EDGE('',*,*,#183,.F.);
#238=ORIENTED_EDGE('',*,*,#170,.F.);
#239=ORIENTED_EDGE('',*,*,#185,.T.);
#240=PLANE('',#270);
#241=PLANE('',#281);
#242=PLANE('',#292);
#243=PLANE('',#295);
#244=PLANE('',#299);
#245=PLANE('',#300);
#246=PLANE('',#301);
#247=PLANE('',#302);
#248=PLANE('',#303);
#249=ADVANCED_FACE('',(#57,#25,#26,#27),#240,.F.);
#250=ADVANCED_FACE('',(#58,#28),#20,.T.);
#251=ADVANCED_FACE('',(#59,#29),#15,.F.);
#252=ADVANCED_FACE('',(#60,#30),#21,.F.);
#253=ADVANCED_FACE('',(#61,#31,#32,#33),#241,.F.);
#254=ADVANCED_FACE('',(#62,#34),#16,.F.);
#255=ADVANCED_FACE('',(#63,#35),#17,.F.);
#256=ADVANCED_FACE('',(#64,#36),#22,.F.);
#257=ADVANCED_FACE('',(#65,#37),#18,.F.);
#258=ADVANCED_FACE('',(#66,#38),#19,.T.);
#259=ADVANCED_FACE('',(#67),#242,.T.);
#260=ADVANCED_FACE('',(#68,#39),#23,.T.);
#261=ADVANCED_FACE('',(#69,#40),#243,.T.);
#262=ADVANCED_FACE('',(#70,#41),#24,.T.);
#263=ADVANCED_FACE('',(#71),#244,.T.);
#264=ADVANCED_FACE('',(#72),#245,.T.);
#265=ADVANCED_FACE('',(#73),#246,.T.);
#266=ADVANCED_FACE('',(#74),#247,.T.);
#267=ADVANCED_FACE('',(#75),#248,.T.);
#268=CLOSED_SHELL('',(#249,#250,#251,#252,#253,#254,#255,#256,#257,#258,
#259,#260,#261,#262,#263,#264,#265,#266,#267));
#269=AXIS2_PLACEMENT_3D('placement',#386,#304,#305);
#270=AXIS2_PLACEMENT_3D('',#387,#306,#307);
#271=AXIS2_PLACEMENT_3D('',#397,#312,#313);
#272=AXIS2_PLACEMENT_3D('',#399,#314,#315);
#273=AXIS2_PLACEMENT_3D('',#401,#316,#317);
#274=AXIS2_PLACEMENT_3D('',#402,#318,#319);
#275=AXIS2_PLACEMENT_3D('',#404,#320,#321);
#276=AXIS2_PLACEMENT_3D('',#405,#322,#323);
#277=AXIS2_PLACEMENT_3D('',#407,#324,#325);
#278=AXIS2_PLACEMENT_3D('',#409,#326,#327);
#279=AXIS2_PLACEMENT_3D('',#410,#328,#329);
#280=AXIS2_PLACEMENT_3D('',#412,#330,#331);
#281=AXIS2_PLACEMENT_3D('',#413,#332,#333);
#282=AXIS2_PLACEMENT_3D('',#423,#338,#339);
#283=AXIS2_PLACEMENT_3D('',#425,#340,#341);
#284=AXIS2_PLACEMENT_3D('',#426,#342,#343);
#285=AXIS2_PLACEMENT_3D('',#427,#344,#345);
#286=AXIS2_PLACEMENT_3D('',#429,#346,#347);
#287=AXIS2_PLACEMENT_3D('',#430,#348,#349);
#288=AXIS2_PLACEMENT_3D('',#432,#350,#351);
#289=AXIS2_PLACEMENT_3D('',#433,#352,#353);
#290=AXIS2_PLACEMENT_3D('',#434,#354,#355);
#291=AXIS2_PLACEMENT_3D('',#436,#356,#357);
#292=AXIS2_PLACEMENT_3D('',#437,#358,#359);
#293=AXIS2_PLACEMENT_3D('',#438,#360,#361);
#294=AXIS2_PLACEMENT_3D('',#440,#362,#363);
#295=AXIS2_PLACEMENT_3D('',#441,#364,#365);
#296=AXIS2_PLACEMENT_3D('',#443,#366,#367);
#297=AXIS2_PLACEMENT_3D('',#444,#368,#369);
#298=AXIS2_PLACEMENT_3D('',#446,#370,#371);
#299=AXIS2_PLACEMENT_3D('',#447,#372,#373);
#300=AXIS2_PLACEMENT_3D('',#448,#374,#375);
#301=AXIS2_PLACEMENT_3D('',#451,#378,#379);
#302=AXIS2_PLACEMENT_3D('',#453,#381,#382);
#303=AXIS2_PLACEMENT_3D('',#455,#384,#385);
#304=DIRECTION('axis',(0.,0.,1.));
#305=DIRECTION('refdir',(1.,0.,0.));
#306=DIRECTION('center_axis',(0.,0.,-1.));
#307=DIRECTION('ref_axis',(-1.,0.,0.));
#308=DIRECTION('',(0.,-1.,0.));
#309=DIRECTION('',(1.,1.86984930463184E-16,0.));
#310=DIRECTION('',(0.,1.,0.));
#311=DIRECTION('',(-1.,1.86984930463184E-16,0.));
#312=DIRECTION('center_axis',(0.,0.,1.));
#313=DIRECTION('ref_axis',(-1.,0.,0.));
#314=DIRECTION('center_axis',(0.,0.,1.));
#315=DIRECTION('ref_axis',(-1.,0.,0.));
#316=DIRECTION('center_axis',(0.,0.,-1.));
#317=DIRECTION('ref_axis',(-1.,0.,0.));
#318=DIRECTION('center_axis',(0.,0.,-1.));
#319=DIRECTION('ref_axis',(-1.,0.,0.));
#320=DIRECTION('center_axis',(0.,0.,1.));
#321=DIRECTION('ref_axis',(1.,0.,0.));
#322=DIRECTION('center_axis',(0.,0.,-1.));
#323=DIRECTION('ref_axis',(1.,0.,0.));
#324=DIRECTION('center_axis',(0.,0.,1.));
#325=DIRECTION('ref_axis',(1.,0.,0.));
#326=DIRECTION('center_axis',(0.,0.,-1.));
#327=DIRECTION('ref_axis',(1.,0.,0.));
#328=DIRECTION('center_axis',(0.,0.,1.));
#329=DIRECTION('ref_axis',(1.,0.,0.));
#330=DIRECTION('center_axis',(0.,0.,-1.));
#331=DIRECTION('ref_axis',(-1.,0.,0.));
#332=DIRECTION('center_axis',(0.,0.,1.));
#333=DIRECTION('ref_axis',(1.,0.,0.));
#334=DIRECTION('',(1.,1.86984930463184E-16,0.));
#335=DIRECTION('',(0.,-1.,0.));
#336=DIRECTION('',(-1.,1.86984930463184E-16,0.));
#337=DIRECTION('',(0.,1.,0.));
#338=DIRECTION('center_axis',(0.,0.,-1.));
#339=DIRECTION('ref_axis',(1.,0.,0.));
#340=DIRECTION('center_axis',(0.,0.,1.));
#341=DIRECTION('ref_axis',(-1.,0.,0.));
#342=DIRECTION('center_axis',(0.,0.,1.));
#343=DIRECTION('ref_axis',(-1.,0.,0.));
#344=DIRECTION('center_axis',(0.,0.,1.));
#345=DIRECTION('ref_axis',(-1.,0.,0.));
#346=DIRECTION('center_axis',(0.,0.,-1.));
#347=DIRECTION('ref_axis',(-1.,0.,0.));
#348=DIRECTION('center_axis',(0.,0.,1.));
#349=DIRECTION('ref_axis',(1.,0.,0.));
#350=DIRECTION('center_axis',(0.,0.,1.));
#351=DIRECTION('ref_axis',(1.,0.,0.));
#352=DIRECTION('center_axis',(0.,0.,-1.));
#353=DIRECTION('ref_axis',(1.,0.,0.));
#354=DIRECTION('center_axis',(0.,0.,-1.));
#355=DIRECTION('ref_axis',(1.,0.,0.));
#356=DIRECTION('center_axis',(0.,0.,-1.));
#357=DIRECTION('ref_axis',(1.,0.,0.));
#358=DIRECTION('center_axis',(0.,0.,1.));
#359=DIRECTION('ref_axis',(1.,0.,0.));
#360=DIRECTION('center_axis',(0.,0.,-1.));
#361=DIRECTION('ref_axis',(-1.,0.,0.));
#362=DIRECTION('center_axis',(0.,0.,-1.));
#363=DIRECTION('ref_axis',(-1.,0.,0.));
#364=DIRECTION('center_axis',(0.,0.,-1.));
#365=DIRECTION('ref_axis',(-1.,0.,0.));
#366=DIRECTION('center_axis',(0.,0.,-1.));
#367=DIRECTION('ref_axis',(-1.,0.,0.));
#368=DIRECTION('center_axis',(0.,0.,-1.));
#369=DIRECTION('ref_axis',(-1.,0.,0.));
#370=DIRECTION('center_axis',(0.,0.,-1.));
#371=DIRECTION('ref_axis',(-1.,0.,0.));
#372=DIRECTION('center_axis',(0.,0.,-1.));
#373=DIRECTION('ref_axis',(-1.,0.,0.));
#374=DIRECTION('center_axis',(1.,0.,0.));
#375=DIRECTION('ref_axis',(0.,0.,-1.));
#376=DIRECTION('',(0.,0.,1.));
#377=DIRECTION('',(0.,0.,1.));
#378=DIRECTION('center_axis',(-1.86984930463184E-16,-1.,0.));
#379=DIRECTION('ref_axis',(0.,0.,-1.));
#380=DIRECTION('',(0.,0.,1.));
#381=DIRECTION('center_axis',(-1.,0.,0.));
#382=DIRECTION('ref_axis',(0.,0.,1.));
#383=DIRECTION('',(0.,0.,1.));
#384=DIRECTION('center_axis',(-1.86984930463184E-16,1.,0.));
#385=DIRECTION('ref_axis',(0.,0.,1.));
#386=CARTESIAN_POINT('',(0.,0.,0.));
#387=CARTESIAN_POINT('Origin',(0.,0.,28.));
#388=CARTESIAN_POINT('',(47.5,22.5,28.));
#389=CARTESIAN_POINT('',(47.5,-22.5,28.));
#390=CARTESIAN_POINT('',(47.5,22.5,28.));
#391=CARTESIAN_POINT('',(-47.5,22.5,28.));
#392=CARTESIAN_POINT('',(-47.5,22.5,28.));
#393=CARTESIAN_POINT('',(-47.5,-22.5,28.));
#394=CARTESIAN_POINT('',(-47.5,-22.5,28.));
#395=CARTESIAN_POINT('',(47.5,-22.5,28.));
#396=CARTESIAN_POINT('',(-21.,1.1327982892113E-15,28.));
#397=CARTESIAN_POINT('Origin',(-30.25,0.,28.));
#398=CARTESIAN_POINT('',(39.5,1.1327982892113E-15,28.));
#399=CARTESIAN_POINT('Origin',(30.25,0.,28.));
#400=CARTESIAN_POINT('',(11.75,-1.43895998899814E-15,28.));
#401=CARTESIAN_POINT('Origin',(0.,0.,28.));
#402=CARTESIAN_POINT('Origin',(0.,0.,25.));
#403=CARTESIAN_POINT('',(-11.75,-1.43895998899814E-15,49.5));
#404=CARTESIAN_POINT('Origin',(0.,0.,49.5));
#405=CARTESIAN_POINT('Origin',(-30.25,0.,0.250000000000004));
#406=CARTESIAN_POINT('',(-39.,-1.07156594925393E-15,0.500000000000007));
#407=CARTESIAN_POINT('Origin',(-30.25,0.,0.500000000000007));
#408=CARTESIAN_POINT('',(-39.5,1.1327982892113E-15,0.));
#409=CARTESIAN_POINT('Origin',(-30.25,0.,0.));
#410=CARTESIAN_POINT('Origin',(-30.25,0.,-80.7841900277793));
#411=CARTESIAN_POINT('',(-21.5,-1.07156594925393E-15,27.5));
#412=CARTESIAN_POINT('Origin',(-30.25,0.,27.5));
#413=CARTESIAN_POINT('Origin',(5.55111512312578E-15,-1.23998935217875E-15,
0.));
#414=CARTESIAN_POINT('',(-47.5,22.5,0.));
#415=CARTESIAN_POINT('',(47.5,22.5,0.));
#416=CARTESIAN_POINT('',(-47.5,22.5,0.));
#417=CARTESIAN_POINT('',(47.5,-22.5,0.));
#418=CARTESIAN_POINT('',(47.5,22.5,0.));
#419=CARTESIAN_POINT('',(-47.5,-22.5,0.));
#420=CARTESIAN_POINT('',(47.5,-22.5,0.));
#421=CARTESIAN_POINT('',(-47.5,-22.5,0.));
#422=CARTESIAN_POINT('',(21.,1.1327982892113E-15,0.));
#423=CARTESIAN_POINT('Origin',(30.25,0.,0.));
#424=CARTESIAN_POINT('',(-16.75,0.,0.));
#425=CARTESIAN_POINT('Origin',(0.,0.,0.));
#426=CARTESIAN_POINT('Origin',(-30.25,0.,27.75));
#427=CARTESIAN_POINT('Origin',(30.25,0.,27.75));
#428=CARTESIAN_POINT('',(39.,-1.07156594925393E-15,27.5));
#429=CARTESIAN_POINT('Origin',(30.25,0.,27.5));
#430=CARTESIAN_POINT('Origin',(30.25,0.,-80.7841900277793));
#431=CARTESIAN_POINT('',(21.5,-1.07156594925393E-15,0.500000000000007));
#432=CARTESIAN_POINT('Origin',(30.25,0.,0.500000000000007));
#433=CARTESIAN_POINT('Origin',(30.25,0.,0.250000000000004));
#434=CARTESIAN_POINT('Origin',(0.,0.,49.75));
#435=CARTESIAN_POINT('',(-11.25,1.37772764904077E-15,50.));
#436=CARTESIAN_POINT('Origin',(0.,0.,50.));
#437=CARTESIAN_POINT('Origin',(-5.875,0.,50.));
#438=CARTESIAN_POINT('Origin',(0.,0.,-3.75));
#439=CARTESIAN_POINT('',(-16.75,0.,-7.5));
#440=CARTESIAN_POINT('Origin',(0.,0.,-7.5));
#441=CARTESIAN_POINT('Origin',(-14.25,0.,-7.5));
#442=CARTESIAN_POINT('',(-11.75,0.,-7.5));
#443=CARTESIAN_POINT('Origin',(0.,0.,-7.5));
#444=CARTESIAN_POINT('Origin',(0.,0.,-13.75));
#445=CARTESIAN_POINT('',(-11.75,0.,-20.));
#446=CARTESIAN_POINT('Origin',(0.,0.,-20.));
#447=CARTESIAN_POINT('Origin',(-11.1580786616936,0.,-20.));
#448=CARTESIAN_POINT('Origin',(47.5,22.5,0.));
#449=CARTESIAN_POINT('',(47.5,-22.5,0.));
#450=CARTESIAN_POINT('',(47.5,22.5,0.));
#451=CARTESIAN_POINT('Origin',(47.5,-22.5,0.));
#452=CARTESIAN_POINT('',(-47.5,-22.5,0.));
#453=CARTESIAN_POINT('Origin',(-47.5,-22.5,0.));
#454=CARTESIAN_POINT('',(-47.5,22.5,0.));
#455=CARTESIAN_POINT('Origin',(-47.5,22.5,0.));
#456=UNCERTAINTY_MEASURE_WITH_UNIT(LENGTH_MEASURE(0.01),#460,
'DISTANCE_ACCURACY_VALUE',
'Maximum model space distance between geometric entities at asserted c
onnectivities');
#457=UNCERTAINTY_MEASURE_WITH_UNIT(LENGTH_MEASURE(1.E-6),#460,
'DISTANCE_ACCURACY_VALUE',
'Maximum model space distance between geometric entities at asserted c
onnectivities');
#458=(
GEOMETRIC_REPRESENTATION_CONTEXT(3)
GLOBAL_UNCERTAINTY_ASSIGNED_CONTEXT((#456))
GLOBAL_UNIT_ASSIGNED_CONTEXT((#460,#463,#461))
REPRESENTATION_CONTEXT('','3D')
);
#459=(
GEOMETRIC_REPRESENTATION_CONTEXT(3)
GLOBAL_UNCERTAINTY_ASSIGNED_CONTEXT((#457))
GLOBAL_UNIT_ASSIGNED_CONTEXT((#460,#463,#461))
REPRESENTATION_CONTEXT('','3D')
);
#460=(
LENGTH_UNIT()
NAMED_UNIT(*)
SI_UNIT(.MILLI.,.METRE.)
);
#461=(
NAMED_UNIT(*)
SI_UNIT($,.STERADIAN.)
SOLID_ANGLE_UNIT()
);
#462=DIMENSIONAL_EXPONENTS(0.,0.,0.,0.,0.,0.,0.);
#463=(
CONVERSION_BASED_UNIT('degree',#465)
NAMED_UNIT(#462)
PLANE_ANGLE_UNIT()
);
#464=(
NAMED_UNIT(*)
PLANE_ANGLE_UNIT()
SI_UNIT($,.RADIAN.)
);
#465=PLANE_ANGLE_MEASURE_WITH_UNIT(PLANE_ANGLE_MEASURE(0.01745329252),#464);
#466=SHAPE_DEFINITION_REPRESENTATION(#467,#468);
#467=PRODUCT_DEFINITION_SHAPE('',$,#470);
#468=SHAPE_REPRESENTATION('',(#269),#458);
#469=PRODUCT_DEFINITION_CONTEXT('part definition',#474,'design');
#470=PRODUCT_DEFINITION('A0012924','A0012924',#471,#469);
#471=PRODUCT_DEFINITION_FORMATION('',$,#476);
#472=PRODUCT_RELATED_PRODUCT_CATEGORY('A0012924','A0012924',(#476));
#473=APPLICATION_PROTOCOL_DEFINITION('international standard',
'automotive_design',2009,#474);
#474=APPLICATION_CONTEXT(
'Core Data for Automotive Mechanical Design Process');
#475=PRODUCT_CONTEXT('part definition',#474,'mechanical');
#476=PRODUCT('A0012924','A0012924',$,(#475));
#477=PRESENTATION_STYLE_ASSIGNMENT((#478));
#478=SURFACE_STYLE_USAGE(.BOTH.,#479);
#479=SURFACE_SIDE_STYLE($,(#480));
#480=SURFACE_STYLE_FILL_AREA(#481);
#481=FILL_AREA_STYLE($,(#482));
#482=FILL_AREA_STYLE_COLOUR($,#483);
#483=COLOUR_RGB('',0.63921568627451,0.63921568627451,0.686274509803922);
ENDSEC;
END-ISO-10303-21;
