ISO-10303-21;
HEADER;
/* Generated by software containing ST-Developer
 * from STEP Tools, Inc. (www.steptools.com) 
 */

FILE_DESCRIPTION(
/* description */ (''),
/* implementation_level */ '2;1');

FILE_NAME(
/* name */ 
'J:\\AM_Zeichnung\\Inventor\\PROJEKT_STAMMORDNER\\Druckmittler\\Druckm
ittler_Baugruppen\\MD56\\Step\\solid\\31412W.stp',
/* time_stamp */ '2018-02-05T13:04:34+01:00',
/* author */ ('acgl'),
/* organization */ (''),
/* preprocessor_version */ 'ST-DEVELOPER v15.6',
/* originating_system */ 'Autodesk Inventor 2015',
/* authorisation */ '');

FILE_SCHEMA (('AUTOMOTIVE_DESIGN { 1 0 10303 214 3 1 1 }'));
ENDSEC;

DATA;
#10=MECHANICAL_DESIGN_GEOMETRIC_PRESENTATION_REPRESENTATION('',(#227,#223,
#224,#226,#225,#239,#235,#238,#236,#237,#233,#231,#230,#234,#229,#228,#232,
#221,#222),#443);
#11=SHAPE_REPRESENTATION_RELATIONSHIP('SRR','None',#453,#12);
#12=ADVANCED_BREP_SHAPE_REPRESENTATION($,(#13),#442);
#13=MANIFOLD_SOLID_BREP('Volumenk\X\F6rper1',#258);
#14=CYLINDRICAL_SURFACE('',#268,3.395);
#15=CYLINDRICAL_SURFACE('',#276,0.55);
#16=CYLINDRICAL_SURFACE('',#278,0.55);
#17=CYLINDRICAL_SURFACE('',#280,0.55);
#18=CYLINDRICAL_SURFACE('',#282,0.55);
#19=CYLINDRICAL_SURFACE('',#287,0.505);
#20=CYLINDRICAL_SURFACE('',#291,0.275);
#21=CYLINDRICAL_SURFACE('',#294,3.19);
#22=CYLINDRICAL_SURFACE('',#298,6.);
#23=PLANE('',#263);
#24=PLANE('',#270);
#25=PLANE('',#284);
#26=PLANE('',#289);
#27=PLANE('',#293);
#28=PLANE('',#297);
#29=FACE_BOUND('',#72,.T.);
#30=FACE_BOUND('',#75,.T.);
#31=FACE_BOUND('',#77,.T.);
#32=FACE_BOUND('',#79,.T.);
#33=FACE_BOUND('',#80,.T.);
#34=FACE_BOUND('',#81,.T.);
#35=FACE_BOUND('',#82,.T.);
#36=FACE_BOUND('',#83,.T.);
#37=FACE_BOUND('',#85,.T.);
#38=FACE_BOUND('',#87,.T.);
#39=FACE_BOUND('',#89,.T.);
#40=FACE_BOUND('',#91,.T.);
#41=FACE_BOUND('',#93,.T.);
#42=FACE_BOUND('',#94,.T.);
#43=FACE_BOUND('',#95,.T.);
#44=FACE_BOUND('',#96,.T.);
#45=FACE_BOUND('',#97,.T.);
#46=FACE_BOUND('',#99,.T.);
#47=FACE_BOUND('',#101,.T.);
#48=FACE_BOUND('',#103,.T.);
#49=FACE_BOUND('',#106,.T.);
#50=FACE_BOUND('',#108,.T.);
#51=FACE_BOUND('',#110,.T.);
#52=FACE_BOUND('',#112,.T.);
#53=FACE_OUTER_BOUND('',#71,.T.);
#54=FACE_OUTER_BOUND('',#73,.T.);
#55=FACE_OUTER_BOUND('',#74,.T.);
#56=FACE_OUTER_BOUND('',#76,.T.);
#57=FACE_OUTER_BOUND('',#78,.T.);
#58=FACE_OUTER_BOUND('',#84,.T.);
#59=FACE_OUTER_BOUND('',#86,.T.);
#60=FACE_OUTER_BOUND('',#88,.T.);
#61=FACE_OUTER_BOUND('',#90,.T.);
#62=FACE_OUTER_BOUND('',#92,.T.);
#63=FACE_OUTER_BOUND('',#98,.T.);
#64=FACE_OUTER_BOUND('',#100,.T.);
#65=FACE_OUTER_BOUND('',#102,.T.);
#66=FACE_OUTER_BOUND('',#104,.T.);
#67=FACE_OUTER_BOUND('',#105,.T.);
#68=FACE_OUTER_BOUND('',#107,.T.);
#69=FACE_OUTER_BOUND('',#109,.T.);
#70=FACE_OUTER_BOUND('',#111,.T.);
#71=EDGE_LOOP('',(#176));
#72=EDGE_LOOP('',(#177));
#73=EDGE_LOOP('',(#178));
#74=EDGE_LOOP('',(#179));
#75=EDGE_LOOP('',(#180));
#76=EDGE_LOOP('',(#181));
#77=EDGE_LOOP('',(#182));
#78=EDGE_LOOP('',(#183));
#79=EDGE_LOOP('',(#184));
#80=EDGE_LOOP('',(#185));
#81=EDGE_LOOP('',(#186));
#82=EDGE_LOOP('',(#187));
#83=EDGE_LOOP('',(#188));
#84=EDGE_LOOP('',(#189));
#85=EDGE_LOOP('',(#190));
#86=EDGE_LOOP('',(#191));
#87=EDGE_LOOP('',(#192));
#88=EDGE_LOOP('',(#193));
#89=EDGE_LOOP('',(#194));
#90=EDGE_LOOP('',(#195));
#91=EDGE_LOOP('',(#196));
#92=EDGE_LOOP('',(#197));
#93=EDGE_LOOP('',(#198));
#94=EDGE_LOOP('',(#199));
#95=EDGE_LOOP('',(#200));
#96=EDGE_LOOP('',(#201));
#97=EDGE_LOOP('',(#202));
#98=EDGE_LOOP('',(#203));
#99=EDGE_LOOP('',(#204));
#100=EDGE_LOOP('',(#205));
#101=EDGE_LOOP('',(#206));
#102=EDGE_LOOP('',(#207));
#103=EDGE_LOOP('',(#208));
#104=EDGE_LOOP('',(#209));
#105=EDGE_LOOP('',(#210));
#106=EDGE_LOOP('',(#211));
#107=EDGE_LOOP('',(#212));
#108=EDGE_LOOP('',(#213));
#109=EDGE_LOOP('',(#214));
#110=EDGE_LOOP('',(#215));
#111=EDGE_LOOP('',(#216));
#112=EDGE_LOOP('',(#217));
#113=CIRCLE('',#261,3.19);
#114=CIRCLE('',#262,3.20598541274951);
#115=CIRCLE('',#264,3.19);
#116=CIRCLE('',#266,3.395);
#117=CIRCLE('',#267,3.495);
#118=CIRCLE('',#269,3.395);
#119=CIRCLE('',#271,6.);
#120=CIRCLE('',#272,0.55);
#121=CIRCLE('',#273,0.55);
#122=CIRCLE('',#274,0.55);
#123=CIRCLE('',#275,0.55);
#124=CIRCLE('',#277,0.55);
#125=CIRCLE('',#279,0.55);
#126=CIRCLE('',#281,0.55);
#127=CIRCLE('',#283,0.55);
#128=CIRCLE('',#285,6.);
#129=CIRCLE('',#286,0.505);
#130=CIRCLE('',#288,0.505);
#131=CIRCLE('',#290,0.275);
#132=CIRCLE('',#292,0.275);
#133=CIRCLE('',#296,3.26);
#134=VERTEX_POINT('',#381);
#135=VERTEX_POINT('',#383);
#136=VERTEX_POINT('',#386);
#137=VERTEX_POINT('',#389);
#138=VERTEX_POINT('',#391);
#139=VERTEX_POINT('',#394);
#140=VERTEX_POINT('',#397);
#141=VERTEX_POINT('',#399);
#142=VERTEX_POINT('',#401);
#143=VERTEX_POINT('',#403);
#144=VERTEX_POINT('',#405);
#145=VERTEX_POINT('',#408);
#146=VERTEX_POINT('',#411);
#147=VERTEX_POINT('',#414);
#148=VERTEX_POINT('',#417);
#149=VERTEX_POINT('',#420);
#150=VERTEX_POINT('',#422);
#151=VERTEX_POINT('',#425);
#152=VERTEX_POINT('',#428);
#153=VERTEX_POINT('',#431);
#154=VERTEX_POINT('',#436);
#155=EDGE_CURVE('',#134,#134,#113,.T.);
#156=EDGE_CURVE('',#135,#135,#114,.T.);
#157=EDGE_CURVE('',#136,#136,#115,.T.);
#158=EDGE_CURVE('',#137,#137,#116,.T.);
#159=EDGE_CURVE('',#138,#138,#117,.T.);
#160=EDGE_CURVE('',#139,#139,#118,.T.);
#161=EDGE_CURVE('',#140,#140,#119,.T.);
#162=EDGE_CURVE('',#141,#141,#120,.T.);
#163=EDGE_CURVE('',#142,#142,#121,.T.);
#164=EDGE_CURVE('',#143,#143,#122,.T.);
#165=EDGE_CURVE('',#144,#144,#123,.T.);
#166=EDGE_CURVE('',#145,#145,#124,.T.);
#167=EDGE_CURVE('',#146,#146,#125,.T.);
#168=EDGE_CURVE('',#147,#147,#126,.T.);
#169=EDGE_CURVE('',#148,#148,#127,.T.);
#170=EDGE_CURVE('',#149,#149,#128,.T.);
#171=EDGE_CURVE('',#150,#150,#129,.T.);
#172=EDGE_CURVE('',#151,#151,#130,.T.);
#173=EDGE_CURVE('',#152,#152,#131,.T.);
#174=EDGE_CURVE('',#153,#153,#132,.T.);
#175=EDGE_CURVE('',#154,#154,#133,.T.);
#176=ORIENTED_EDGE('',*,*,#155,.F.);
#177=ORIENTED_EDGE('',*,*,#156,.F.);
#178=ORIENTED_EDGE('',*,*,#157,.F.);
#179=ORIENTED_EDGE('',*,*,#158,.T.);
#180=ORIENTED_EDGE('',*,*,#159,.T.);
#181=ORIENTED_EDGE('',*,*,#160,.T.);
#182=ORIENTED_EDGE('',*,*,#158,.F.);
#183=ORIENTED_EDGE('',*,*,#161,.F.);
#184=ORIENTED_EDGE('',*,*,#162,.T.);
#185=ORIENTED_EDGE('',*,*,#163,.T.);
#186=ORIENTED_EDGE('',*,*,#164,.T.);
#187=ORIENTED_EDGE('',*,*,#165,.T.);
#188=ORIENTED_EDGE('',*,*,#159,.F.);
#189=ORIENTED_EDGE('',*,*,#166,.F.);
#190=ORIENTED_EDGE('',*,*,#165,.F.);
#191=ORIENTED_EDGE('',*,*,#167,.F.);
#192=ORIENTED_EDGE('',*,*,#164,.F.);
#193=ORIENTED_EDGE('',*,*,#168,.F.);
#194=ORIENTED_EDGE('',*,*,#163,.F.);
#195=ORIENTED_EDGE('',*,*,#169,.F.);
#196=ORIENTED_EDGE('',*,*,#162,.F.);
#197=ORIENTED_EDGE('',*,*,#170,.T.);
#198=ORIENTED_EDGE('',*,*,#166,.T.);
#199=ORIENTED_EDGE('',*,*,#167,.T.);
#200=ORIENTED_EDGE('',*,*,#168,.T.);
#201=ORIENTED_EDGE('',*,*,#169,.T.);
#202=ORIENTED_EDGE('',*,*,#171,.F.);
#203=ORIENTED_EDGE('',*,*,#172,.F.);
#204=ORIENTED_EDGE('',*,*,#171,.T.);
#205=ORIENTED_EDGE('',*,*,#172,.T.);
#206=ORIENTED_EDGE('',*,*,#173,.F.);
#207=ORIENTED_EDGE('',*,*,#174,.F.);
#208=ORIENTED_EDGE('',*,*,#173,.T.);
#209=ORIENTED_EDGE('',*,*,#174,.T.);
#210=ORIENTED_EDGE('',*,*,#155,.T.);
#211=ORIENTED_EDGE('',*,*,#157,.T.);
#212=ORIENTED_EDGE('',*,*,#175,.F.);
#213=ORIENTED_EDGE('',*,*,#156,.T.);
#214=ORIENTED_EDGE('',*,*,#160,.F.);
#215=ORIENTED_EDGE('',*,*,#175,.T.);
#216=ORIENTED_EDGE('',*,*,#170,.F.);
#217=ORIENTED_EDGE('',*,*,#161,.T.);
#218=TOROIDAL_SURFACE('',#260,3.15,0.15);
#219=TOROIDAL_SURFACE('',#265,3.495,0.1);
#220=TOROIDAL_SURFACE('',#295,3.26,0.14);
#221=STYLED_ITEM('',(#463),#240);
#222=STYLED_ITEM('',(#464),#241);
#223=STYLED_ITEM('',(#464),#242);
#224=STYLED_ITEM('',(#464),#243);
#225=STYLED_ITEM('',(#464),#244);
#226=STYLED_ITEM('',(#464),#245);
#227=STYLED_ITEM('',(#464),#246);
#228=STYLED_ITEM('',(#464),#247);
#229=STYLED_ITEM('',(#464),#248);
#230=STYLED_ITEM('',(#464),#249);
#231=STYLED_ITEM('',(#464),#250);
#232=STYLED_ITEM('',(#464),#251);
#233=STYLED_ITEM('',(#464),#252);
#234=STYLED_ITEM('',(#464),#253);
#235=STYLED_ITEM('',(#464),#254);
#236=STYLED_ITEM('',(#464),#255);
#237=STYLED_ITEM('',(#464),#256);
#238=STYLED_ITEM('',(#464),#257);
#239=STYLED_ITEM('',(#462),#13);
#240=ADVANCED_FACE('',(#53,#29),#218,.T.);
#241=ADVANCED_FACE('',(#54),#23,.T.);
#242=ADVANCED_FACE('',(#55,#30),#219,.F.);
#243=ADVANCED_FACE('',(#56,#31),#14,.T.);
#244=ADVANCED_FACE('',(#57,#32,#33,#34,#35,#36),#24,.T.);
#245=ADVANCED_FACE('',(#58,#37),#15,.F.);
#246=ADVANCED_FACE('',(#59,#38),#16,.F.);
#247=ADVANCED_FACE('',(#60,#39),#17,.F.);
#248=ADVANCED_FACE('',(#61,#40),#18,.F.);
#249=ADVANCED_FACE('',(#62,#41,#42,#43,#44,#45),#25,.T.);
#250=ADVANCED_FACE('',(#63,#46),#19,.F.);
#251=ADVANCED_FACE('',(#64,#47),#26,.T.);
#252=ADVANCED_FACE('',(#65,#48),#20,.F.);
#253=ADVANCED_FACE('',(#66),#27,.T.);
#254=ADVANCED_FACE('',(#67,#49),#21,.T.);
#255=ADVANCED_FACE('',(#68,#50),#220,.F.);
#256=ADVANCED_FACE('',(#69,#51),#28,.T.);
#257=ADVANCED_FACE('',(#70,#52),#22,.T.);
#258=CLOSED_SHELL('',(#240,#241,#242,#243,#244,#245,#246,#247,#248,#249,
#250,#251,#252,#253,#254,#255,#256,#257));
#259=AXIS2_PLACEMENT_3D('placement',#379,#299,#300);
#260=AXIS2_PLACEMENT_3D('',#380,#301,#302);
#261=AXIS2_PLACEMENT_3D('',#382,#303,#304);
#262=AXIS2_PLACEMENT_3D('',#384,#305,#306);
#263=AXIS2_PLACEMENT_3D('',#385,#307,#308);
#264=AXIS2_PLACEMENT_3D('',#387,#309,#310);
#265=AXIS2_PLACEMENT_3D('',#388,#311,#312);
#266=AXIS2_PLACEMENT_3D('',#390,#313,#314);
#267=AXIS2_PLACEMENT_3D('',#392,#315,#316);
#268=AXIS2_PLACEMENT_3D('',#393,#317,#318);
#269=AXIS2_PLACEMENT_3D('',#395,#319,#320);
#270=AXIS2_PLACEMENT_3D('',#396,#321,#322);
#271=AXIS2_PLACEMENT_3D('',#398,#323,#324);
#272=AXIS2_PLACEMENT_3D('',#400,#325,#326);
#273=AXIS2_PLACEMENT_3D('',#402,#327,#328);
#274=AXIS2_PLACEMENT_3D('',#404,#329,#330);
#275=AXIS2_PLACEMENT_3D('',#406,#331,#332);
#276=AXIS2_PLACEMENT_3D('',#407,#333,#334);
#277=AXIS2_PLACEMENT_3D('',#409,#335,#336);
#278=AXIS2_PLACEMENT_3D('',#410,#337,#338);
#279=AXIS2_PLACEMENT_3D('',#412,#339,#340);
#280=AXIS2_PLACEMENT_3D('',#413,#341,#342);
#281=AXIS2_PLACEMENT_3D('',#415,#343,#344);
#282=AXIS2_PLACEMENT_3D('',#416,#345,#346);
#283=AXIS2_PLACEMENT_3D('',#418,#347,#348);
#284=AXIS2_PLACEMENT_3D('',#419,#349,#350);
#285=AXIS2_PLACEMENT_3D('',#421,#351,#352);
#286=AXIS2_PLACEMENT_3D('',#423,#353,#354);
#287=AXIS2_PLACEMENT_3D('',#424,#355,#356);
#288=AXIS2_PLACEMENT_3D('',#426,#357,#358);
#289=AXIS2_PLACEMENT_3D('',#427,#359,#360);
#290=AXIS2_PLACEMENT_3D('',#429,#361,#362);
#291=AXIS2_PLACEMENT_3D('',#430,#363,#364);
#292=AXIS2_PLACEMENT_3D('',#432,#365,#366);
#293=AXIS2_PLACEMENT_3D('',#433,#367,#368);
#294=AXIS2_PLACEMENT_3D('',#434,#369,#370);
#295=AXIS2_PLACEMENT_3D('',#435,#371,#372);
#296=AXIS2_PLACEMENT_3D('',#437,#373,#374);
#297=AXIS2_PLACEMENT_3D('',#438,#375,#376);
#298=AXIS2_PLACEMENT_3D('',#439,#377,#378);
#299=DIRECTION('axis',(0.,0.,1.));
#300=DIRECTION('refdir',(1.,0.,0.));
#301=DIRECTION('center_axis',(1.40055092395498E-16,-1.,-6.12322937689448E-17));
#302=DIRECTION('ref_axis',(0.19606975053278,1.34572487833352E-16,-0.980589951471059));
#303=DIRECTION('center_axis',(0.,1.,0.));
#304=DIRECTION('ref_axis',(1.,-1.05529011455256E-17,0.));
#305=DIRECTION('center_axis',(1.40055092395498E-16,-1.,-6.12322937689448E-17));
#306=DIRECTION('ref_axis',(-1.24951731483079E-32,0.,-1.));
#307=DIRECTION('center_axis',(0.,1.,0.));
#308=DIRECTION('ref_axis',(0.,0.,1.));
#309=DIRECTION('center_axis',(0.,-1.,0.));
#310=DIRECTION('ref_axis',(1.,-1.05529011455256E-17,0.));
#311=DIRECTION('center_axis',(0.,-1.,0.));
#312=DIRECTION('ref_axis',(0.,0.,-1.));
#313=DIRECTION('center_axis',(0.,-1.,0.));
#314=DIRECTION('ref_axis',(-1.,0.,1.22460635382238E-16));
#315=DIRECTION('center_axis',(0.,1.,0.));
#316=DIRECTION('ref_axis',(-1.,0.,1.22460635382238E-16));
#317=DIRECTION('center_axis',(0.,-1.,0.));
#318=DIRECTION('ref_axis',(1.,-1.05529011455256E-17,0.));
#319=DIRECTION('center_axis',(0.,-1.,0.));
#320=DIRECTION('ref_axis',(1.,-1.05529011455256E-17,0.));
#321=DIRECTION('center_axis',(0.,1.,0.));
#322=DIRECTION('ref_axis',(0.,0.,1.));
#323=DIRECTION('center_axis',(0.,-1.,0.));
#324=DIRECTION('ref_axis',(1.,-1.05529011455256E-17,0.));
#325=DIRECTION('center_axis',(0.,-1.,0.));
#326=DIRECTION('ref_axis',(1.,0.,0.));
#327=DIRECTION('center_axis',(0.,-1.,0.));
#328=DIRECTION('ref_axis',(1.,0.,0.));
#329=DIRECTION('center_axis',(0.,-1.,0.));
#330=DIRECTION('ref_axis',(1.,0.,0.));
#331=DIRECTION('center_axis',(0.,-1.,0.));
#332=DIRECTION('ref_axis',(1.,0.,0.));
#333=DIRECTION('center_axis',(0.,1.,0.));
#334=DIRECTION('ref_axis',(1.,0.,0.));
#335=DIRECTION('center_axis',(0.,1.,0.));
#336=DIRECTION('ref_axis',(1.,0.,0.));
#337=DIRECTION('center_axis',(0.,1.,0.));
#338=DIRECTION('ref_axis',(1.,0.,0.));
#339=DIRECTION('center_axis',(0.,1.,0.));
#340=DIRECTION('ref_axis',(1.,0.,0.));
#341=DIRECTION('center_axis',(0.,1.,0.));
#342=DIRECTION('ref_axis',(1.,0.,0.));
#343=DIRECTION('center_axis',(0.,1.,0.));
#344=DIRECTION('ref_axis',(1.,0.,0.));
#345=DIRECTION('center_axis',(0.,1.,0.));
#346=DIRECTION('ref_axis',(1.,0.,0.));
#347=DIRECTION('center_axis',(0.,1.,0.));
#348=DIRECTION('ref_axis',(1.,0.,0.));
#349=DIRECTION('center_axis',(0.,-1.,0.));
#350=DIRECTION('ref_axis',(0.,0.,-1.));
#351=DIRECTION('center_axis',(0.,-1.,0.));
#352=DIRECTION('ref_axis',(1.,-1.05529011455256E-17,0.));
#353=DIRECTION('center_axis',(0.,-1.,0.));
#354=DIRECTION('ref_axis',(1.,-1.05529011455256E-17,0.));
#355=DIRECTION('center_axis',(0.,-1.,0.));
#356=DIRECTION('ref_axis',(1.,-1.05529011455256E-17,0.));
#357=DIRECTION('center_axis',(0.,-1.,0.));
#358=DIRECTION('ref_axis',(1.,-1.05529011455256E-17,0.));
#359=DIRECTION('center_axis',(0.,-1.,0.));
#360=DIRECTION('ref_axis',(0.,0.,-1.));
#361=DIRECTION('center_axis',(0.,-1.,0.));
#362=DIRECTION('ref_axis',(1.,-1.05529011455256E-17,0.));
#363=DIRECTION('center_axis',(0.,-1.,0.));
#364=DIRECTION('ref_axis',(1.,-1.05529011455256E-17,0.));
#365=DIRECTION('center_axis',(0.,-1.,0.));
#366=DIRECTION('ref_axis',(1.,-1.05529011455256E-17,0.));
#367=DIRECTION('center_axis',(0.,-1.,0.));
#368=DIRECTION('ref_axis',(0.,0.,-1.));
#369=DIRECTION('center_axis',(0.,-1.,0.));
#370=DIRECTION('ref_axis',(1.,-1.05529011455256E-17,0.));
#371=DIRECTION('center_axis',(0.,-1.,0.));
#372=DIRECTION('ref_axis',(0.,0.,-1.));
#373=DIRECTION('center_axis',(0.,-1.,0.));
#374=DIRECTION('ref_axis',(1.,-1.05529011455256E-17,0.));
#375=DIRECTION('center_axis',(0.,1.,0.));
#376=DIRECTION('ref_axis',(0.,0.,1.));
#377=DIRECTION('center_axis',(0.,-1.,0.));
#378=DIRECTION('ref_axis',(1.,-1.05529011455256E-17,0.));
#379=CARTESIAN_POINT('',(0.,0.,0.));
#380=CARTESIAN_POINT('Origin',(0.,2.55000000000002,0.));
#381=CARTESIAN_POINT('',(-3.19,2.69456832294803,3.90662328928006E-16));
#382=CARTESIAN_POINT('Origin',(0.,2.69456832294803,0.));
#383=CARTESIAN_POINT('',(-3.7312984633487E-16,2.41083954024486,3.20598541274951));
#384=CARTESIAN_POINT('Origin',(1.94901310488088E-17,2.41083954024486,-8.52111415274934E-18));
#385=CARTESIAN_POINT('Origin',(1.67,2.7,0.));
#386=CARTESIAN_POINT('',(3.19,2.7,0.));
#387=CARTESIAN_POINT('Origin',(0.,2.7,0.));
#388=CARTESIAN_POINT('Origin',(0.,1.1,0.));
#389=CARTESIAN_POINT('',(3.395,1.1,0.));
#390=CARTESIAN_POINT('Origin',(0.,1.1,0.));
#391=CARTESIAN_POINT('',(3.495,1.,-8.55999841321842E-16));
#392=CARTESIAN_POINT('Origin',(0.,1.,0.));
#393=CARTESIAN_POINT('Origin',(0.,1.7,0.));
#394=CARTESIAN_POINT('',(3.395,2.4,0.));
#395=CARTESIAN_POINT('Origin',(0.,2.4,0.));
#396=CARTESIAN_POINT('Origin',(4.6975,1.,0.));
#397=CARTESIAN_POINT('',(6.,1.,0.));
#398=CARTESIAN_POINT('Origin',(0.,1.,0.));
#399=CARTESIAN_POINT('',(0.55,1.,-4.75));
#400=CARTESIAN_POINT('Origin',(0.,1.,-4.75));
#401=CARTESIAN_POINT('',(-4.2,1.,0.));
#402=CARTESIAN_POINT('Origin',(-4.75,1.,0.));
#403=CARTESIAN_POINT('',(0.55,1.,4.75));
#404=CARTESIAN_POINT('Origin',(0.,1.,4.75));
#405=CARTESIAN_POINT('',(5.3,1.,0.));
#406=CARTESIAN_POINT('Origin',(4.75,1.,0.));
#407=CARTESIAN_POINT('Origin',(4.75,0.400000000000001,0.));
#408=CARTESIAN_POINT('',(4.2,-5.55111512312578E-17,6.73533494602308E-17));
#409=CARTESIAN_POINT('Origin',(4.75,-5.55111512312578E-17,0.));
#410=CARTESIAN_POINT('Origin',(0.,0.400000000000001,4.75));
#411=CARTESIAN_POINT('',(-0.55,-5.55111512312578E-17,4.75));
#412=CARTESIAN_POINT('Origin',(0.,-5.55111512312578E-17,4.75));
#413=CARTESIAN_POINT('Origin',(-4.75,0.400000000000001,0.));
#414=CARTESIAN_POINT('',(-5.3,-5.55111512312578E-17,6.73533494602308E-17));
#415=CARTESIAN_POINT('Origin',(-4.75,-5.55111512312578E-17,0.));
#416=CARTESIAN_POINT('Origin',(0.,0.400000000000001,-4.75));
#417=CARTESIAN_POINT('',(-0.55,-5.55111512312578E-17,-4.75));
#418=CARTESIAN_POINT('Origin',(0.,-5.55111512312578E-17,-4.75));
#419=CARTESIAN_POINT('Origin',(3.2525,-3.05928179763406E-17,0.));
#420=CARTESIAN_POINT('',(6.,0.,0.));
#421=CARTESIAN_POINT('Origin',(0.,0.,0.));
#422=CARTESIAN_POINT('',(0.505,-6.11856359526811E-17,0.));
#423=CARTESIAN_POINT('Origin',(0.,-6.11490025281825E-17,0.));
#424=CARTESIAN_POINT('Origin',(0.,0.04,0.));
#425=CARTESIAN_POINT('',(0.505,0.08,0.));
#426=CARTESIAN_POINT('Origin',(0.,0.08,0.));
#427=CARTESIAN_POINT('Origin',(0.39,0.0799999999999999,0.));
#428=CARTESIAN_POINT('',(0.275,0.0799999999999999,0.));
#429=CARTESIAN_POINT('Origin',(0.,0.0799999999999999,0.));
#430=CARTESIAN_POINT('Origin',(0.,0.13,0.));
#431=CARTESIAN_POINT('',(0.275,0.18,0.));
#432=CARTESIAN_POINT('Origin',(0.,0.18,0.));
#433=CARTESIAN_POINT('Origin',(0.2125,0.18,0.));
#434=CARTESIAN_POINT('Origin',(0.,2.68062177826491,0.));
#435=CARTESIAN_POINT('Origin',(0.,2.54,0.));
#436=CARTESIAN_POINT('',(3.26,2.4,0.));
#437=CARTESIAN_POINT('Origin',(0.,2.4,0.));
#438=CARTESIAN_POINT('Origin',(3.3275,2.4,0.));
#439=CARTESIAN_POINT('Origin',(0.,0.5,0.));
#440=UNCERTAINTY_MEASURE_WITH_UNIT(LENGTH_MEASURE(0.001),#444,
'DISTANCE_ACCURACY_VALUE',
'Maximum model space distance between geometric entities at asserted c
onnectivities');
#441=UNCERTAINTY_MEASURE_WITH_UNIT(LENGTH_MEASURE(1.E-6),#445,
'DISTANCE_ACCURACY_VALUE',
'Maximum model space distance between geometric entities at asserted c
onnectivities');
#442=(
GEOMETRIC_REPRESENTATION_CONTEXT(3)
GLOBAL_UNCERTAINTY_ASSIGNED_CONTEXT((#440))
GLOBAL_UNIT_ASSIGNED_CONTEXT((#444,#448,#446))
REPRESENTATION_CONTEXT('','3D')
);
#443=(
GEOMETRIC_REPRESENTATION_CONTEXT(3)
GLOBAL_UNCERTAINTY_ASSIGNED_CONTEXT((#441))
GLOBAL_UNIT_ASSIGNED_CONTEXT((#445,#448,#446))
REPRESENTATION_CONTEXT('','3D')
);
#444=(
LENGTH_UNIT()
NAMED_UNIT(*)
SI_UNIT(.CENTI.,.METRE.)
);
#445=(
LENGTH_UNIT()
NAMED_UNIT(*)
SI_UNIT(.MILLI.,.METRE.)
);
#446=(
NAMED_UNIT(*)
SI_UNIT($,.STERADIAN.)
SOLID_ANGLE_UNIT()
);
#447=DIMENSIONAL_EXPONENTS(0.,0.,0.,0.,0.,0.,0.);
#448=(
CONVERSION_BASED_UNIT('degree',#450)
NAMED_UNIT(#447)
PLANE_ANGLE_UNIT()
);
#449=(
NAMED_UNIT(*)
PLANE_ANGLE_UNIT()
SI_UNIT($,.RADIAN.)
);
#450=PLANE_ANGLE_MEASURE_WITH_UNIT(PLANE_ANGLE_MEASURE(0.01745329252),#449);
#451=SHAPE_DEFINITION_REPRESENTATION(#452,#453);
#452=PRODUCT_DEFINITION_SHAPE('',$,#455);
#453=SHAPE_REPRESENTATION('',(#259),#442);
#454=PRODUCT_DEFINITION_CONTEXT('part definition',#459,'design');
#455=PRODUCT_DEFINITION('31412W','31412W',#456,#454);
#456=PRODUCT_DEFINITION_FORMATION('',$,#461);
#457=PRODUCT_RELATED_PRODUCT_CATEGORY('31412W','31412W',(#461));
#458=APPLICATION_PROTOCOL_DEFINITION('international standard',
'automotive_design',2009,#459);
#459=APPLICATION_CONTEXT(
'Core Data for Automotive Mechanical Design Process');
#460=PRODUCT_CONTEXT('part definition',#459,'mechanical');
#461=PRODUCT('31412W','31412W',$,(#460));
#462=PRESENTATION_STYLE_ASSIGNMENT((#465));
#463=PRESENTATION_STYLE_ASSIGNMENT((#466));
#464=PRESENTATION_STYLE_ASSIGNMENT((#467));
#465=SURFACE_STYLE_USAGE(.BOTH.,#468);
#466=SURFACE_STYLE_USAGE(.BOTH.,#469);
#467=SURFACE_STYLE_USAGE(.BOTH.,#470);
#468=SURFACE_SIDE_STYLE($,(#471));
#469=SURFACE_SIDE_STYLE($,(#472));
#470=SURFACE_SIDE_STYLE($,(#473));
#471=SURFACE_STYLE_FILL_AREA(#474);
#472=SURFACE_STYLE_FILL_AREA(#475);
#473=SURFACE_STYLE_FILL_AREA(#476);
#474=FILL_AREA_STYLE($,(#477));
#475=FILL_AREA_STYLE($,(#478));
#476=FILL_AREA_STYLE($,(#479));
#477=FILL_AREA_STYLE_COLOUR($,#480);
#478=FILL_AREA_STYLE_COLOUR($,#481);
#479=FILL_AREA_STYLE_COLOUR($,#482);
#480=COLOUR_RGB('',0.749019607843137,0.749019607843137,0.749019607843137);
#481=COLOUR_RGB('',0.250980392156863,0.250980392156863,0.250980392156863);
#482=COLOUR_RGB('',0.63921568627451,0.63921568627451,0.686274509803922);
ENDSEC;
END-ISO-10303-21;
