ISO-10303-21;
HEADER;
/* Generated by software containing ST-Developer
 * from STEP Tools, Inc. (www.steptools.com) 
 */

FILE_DESCRIPTION(
/* description */ (''),
/* implementation_level */ '2;1');

FILE_NAME(
/* name */ 
'J:\\AM_Zeichnung\\Inventor\\PROJEKT_STAMMORDNER\\Druckmittler\\Druckm
ittler_Baugruppen\\MD81\\step\\31929W.stp',
/* time_stamp */ '2018-02-06T11:32:26+01:00',
/* author */ ('acgl'),
/* organization */ (''),
/* preprocessor_version */ 'ST-DEVELOPER v15.6',
/* originating_system */ 'Autodesk Inventor 2015',
/* authorisation */ '');

FILE_SCHEMA (('AUTOMOTIVE_DESIGN { 1 0 10303 214 3 1 1 }'));
ENDSEC;

DATA;
#10=MECHANICAL_DESIGN_GEOMETRIC_PRESENTATION_REPRESENTATION('',(#13),#605);
#11=SHAPE_REPRESENTATION_RELATIONSHIP('SRR','None',#614,#12);
#12=ADVANCED_BREP_SHAPE_REPRESENTATION($,(#14),#604);
#13=STYLED_ITEM('',(#623),#14);
#14=MANIFOLD_SOLID_BREP('Volumenk\X\F6rper1',#339);
#15=TOROIDAL_SURFACE('',#380,22.1825716649886,2.90893675621379);
#16=TOROIDAL_SURFACE('',#382,19.1074700008527,1.8476934641288);
#17=TOROIDAL_SURFACE('',#384,16.3896676767205,2.87531613982152);
#18=TOROIDAL_SURFACE('',#386,13.4968074379671,3.50168751113043);
#19=TOROIDAL_SURFACE('',#388,10.8221814754963,2.23346037813052);
#20=TOROIDAL_SURFACE('',#390,8.02167557179717,3.77175093788941);
#21=TOROIDAL_SURFACE('',#392,4.79768936044913,1.96127931199338);
#22=CONICAL_SURFACE('',#367,75.5,44.9999999999999);
#23=CONICAL_SURFACE('',#371,75.5,44.9999999999999);
#24=PLANE('',#353);
#25=PLANE('',#356);
#26=PLANE('',#361);
#27=PLANE('',#365);
#28=PLANE('',#373);
#29=PLANE('',#378);
#30=PLANE('',#394);
#31=PLANE('',#395);
#32=FACE_BOUND('',#93,.T.);
#33=FACE_BOUND('',#95,.T.);
#34=FACE_BOUND('',#97,.T.);
#35=FACE_BOUND('',#99,.T.);
#36=FACE_BOUND('',#101,.T.);
#37=FACE_BOUND('',#103,.T.);
#38=FACE_BOUND('',#105,.T.);
#39=FACE_BOUND('',#107,.T.);
#40=FACE_BOUND('',#109,.T.);
#41=FACE_BOUND('',#111,.T.);
#42=FACE_BOUND('',#112,.T.);
#43=FACE_BOUND('',#113,.T.);
#44=FACE_BOUND('',#114,.T.);
#45=FACE_BOUND('',#115,.T.);
#46=FACE_BOUND('',#117,.T.);
#47=FACE_BOUND('',#119,.T.);
#48=FACE_BOUND('',#121,.T.);
#49=FACE_BOUND('',#123,.T.);
#50=FACE_BOUND('',#124,.T.);
#51=FACE_BOUND('',#125,.T.);
#52=FACE_BOUND('',#126,.T.);
#53=FACE_BOUND('',#127,.T.);
#54=FACE_BOUND('',#129,.T.);
#55=FACE_BOUND('',#131,.T.);
#56=FACE_BOUND('',#133,.T.);
#57=FACE_BOUND('',#135,.T.);
#58=FACE_BOUND('',#137,.T.);
#59=FACE_BOUND('',#139,.T.);
#60=FACE_BOUND('',#141,.T.);
#61=FACE_BOUND('',#143,.T.);
#62=FACE_BOUND('',#145,.T.);
#63=FACE_BOUND('',#147,.T.);
#64=FACE_BOUND('',#151,.T.);
#65=FACE_OUTER_BOUND('',#92,.T.);
#66=FACE_OUTER_BOUND('',#94,.T.);
#67=FACE_OUTER_BOUND('',#96,.T.);
#68=FACE_OUTER_BOUND('',#98,.T.);
#69=FACE_OUTER_BOUND('',#100,.T.);
#70=FACE_OUTER_BOUND('',#102,.T.);
#71=FACE_OUTER_BOUND('',#104,.T.);
#72=FACE_OUTER_BOUND('',#106,.T.);
#73=FACE_OUTER_BOUND('',#108,.T.);
#74=FACE_OUTER_BOUND('',#110,.T.);
#75=FACE_OUTER_BOUND('',#116,.T.);
#76=FACE_OUTER_BOUND('',#118,.T.);
#77=FACE_OUTER_BOUND('',#120,.T.);
#78=FACE_OUTER_BOUND('',#122,.T.);
#79=FACE_OUTER_BOUND('',#128,.T.);
#80=FACE_OUTER_BOUND('',#130,.T.);
#81=FACE_OUTER_BOUND('',#132,.T.);
#82=FACE_OUTER_BOUND('',#134,.T.);
#83=FACE_OUTER_BOUND('',#136,.T.);
#84=FACE_OUTER_BOUND('',#138,.T.);
#85=FACE_OUTER_BOUND('',#140,.T.);
#86=FACE_OUTER_BOUND('',#142,.T.);
#87=FACE_OUTER_BOUND('',#144,.T.);
#88=FACE_OUTER_BOUND('',#146,.T.);
#89=FACE_OUTER_BOUND('',#148,.T.);
#90=FACE_OUTER_BOUND('',#149,.T.);
#91=FACE_OUTER_BOUND('',#150,.T.);
#92=EDGE_LOOP('',(#242));
#93=EDGE_LOOP('',(#243));
#94=EDGE_LOOP('',(#244));
#95=EDGE_LOOP('',(#245));
#96=EDGE_LOOP('',(#246));
#97=EDGE_LOOP('',(#247));
#98=EDGE_LOOP('',(#248));
#99=EDGE_LOOP('',(#249));
#100=EDGE_LOOP('',(#250));
#101=EDGE_LOOP('',(#251));
#102=EDGE_LOOP('',(#252));
#103=EDGE_LOOP('',(#253));
#104=EDGE_LOOP('',(#254));
#105=EDGE_LOOP('',(#255));
#106=EDGE_LOOP('',(#256));
#107=EDGE_LOOP('',(#257));
#108=EDGE_LOOP('',(#258));
#109=EDGE_LOOP('',(#259));
#110=EDGE_LOOP('',(#260));
#111=EDGE_LOOP('',(#261));
#112=EDGE_LOOP('',(#262));
#113=EDGE_LOOP('',(#263));
#114=EDGE_LOOP('',(#264));
#115=EDGE_LOOP('',(#265));
#116=EDGE_LOOP('',(#266));
#117=EDGE_LOOP('',(#267));
#118=EDGE_LOOP('',(#268));
#119=EDGE_LOOP('',(#269));
#120=EDGE_LOOP('',(#270));
#121=EDGE_LOOP('',(#271));
#122=EDGE_LOOP('',(#272));
#123=EDGE_LOOP('',(#273));
#124=EDGE_LOOP('',(#274));
#125=EDGE_LOOP('',(#275));
#126=EDGE_LOOP('',(#276));
#127=EDGE_LOOP('',(#277));
#128=EDGE_LOOP('',(#278));
#129=EDGE_LOOP('',(#279));
#130=EDGE_LOOP('',(#280));
#131=EDGE_LOOP('',(#281));
#132=EDGE_LOOP('',(#282));
#133=EDGE_LOOP('',(#283));
#134=EDGE_LOOP('',(#284));
#135=EDGE_LOOP('',(#285));
#136=EDGE_LOOP('',(#286));
#137=EDGE_LOOP('',(#287));
#138=EDGE_LOOP('',(#288));
#139=EDGE_LOOP('',(#289));
#140=EDGE_LOOP('',(#290));
#141=EDGE_LOOP('',(#291));
#142=EDGE_LOOP('',(#292));
#143=EDGE_LOOP('',(#293));
#144=EDGE_LOOP('',(#294));
#145=EDGE_LOOP('',(#295));
#146=EDGE_LOOP('',(#296));
#147=EDGE_LOOP('',(#297));
#148=EDGE_LOOP('',(#298));
#149=EDGE_LOOP('',(#299));
#150=EDGE_LOOP('',(#300));
#151=EDGE_LOOP('',(#301));
#152=CIRCLE('',#342,9.5);
#153=CIRCLE('',#343,9.5);
#154=CIRCLE('',#345,9.5);
#155=CIRCLE('',#346,9.5);
#156=CIRCLE('',#348,9.5);
#157=CIRCLE('',#349,9.5);
#158=CIRCLE('',#351,9.5);
#159=CIRCLE('',#352,9.5);
#160=CIRCLE('',#354,46.);
#161=CIRCLE('',#355,24.);
#162=CIRCLE('',#357,2.75);
#163=CIRCLE('',#358,1.99999600553697);
#164=CIRCLE('',#360,2.75);
#165=CIRCLE('',#362,5.04999999999995);
#166=CIRCLE('',#364,5.04999999999995);
#167=CIRCLE('',#366,75.);
#168=CIRCLE('',#368,76.);
#169=CIRCLE('',#370,76.);
#170=CIRCLE('',#372,75.);
#171=CIRCLE('',#374,46.);
#172=CIRCLE('',#377,24.);
#173=CIRCLE('',#379,22.1825716649886);
#174=CIRCLE('',#381,20.3019806067131);
#175=CIRCLE('',#383,18.0442357472333);
#176=CIRCLE('',#385,15.0853109301951);
#177=CIRCLE('',#387,11.8637712006164);
#178=CIRCLE('',#389,9.78061630060448);
#179=CIRCLE('',#391,5.90062047765333);
#180=CIRCLE('',#393,4.79768936044913);
#181=CIRCLE('',#396,1.99999415082641);
#182=VERTEX_POINT('',#516);
#183=VERTEX_POINT('',#518);
#184=VERTEX_POINT('',#521);
#185=VERTEX_POINT('',#523);
#186=VERTEX_POINT('',#526);
#187=VERTEX_POINT('',#528);
#188=VERTEX_POINT('',#531);
#189=VERTEX_POINT('',#533);
#190=VERTEX_POINT('',#536);
#191=VERTEX_POINT('',#538);
#192=VERTEX_POINT('',#541);
#193=VERTEX_POINT('',#543);
#194=VERTEX_POINT('',#546);
#195=VERTEX_POINT('',#549);
#196=VERTEX_POINT('',#552);
#197=VERTEX_POINT('',#555);
#198=VERTEX_POINT('',#558);
#199=VERTEX_POINT('',#561);
#200=VERTEX_POINT('',#564);
#201=VERTEX_POINT('',#567);
#202=VERTEX_POINT('',#571);
#203=VERTEX_POINT('',#574);
#204=VERTEX_POINT('',#577);
#205=VERTEX_POINT('',#580);
#206=VERTEX_POINT('',#583);
#207=VERTEX_POINT('',#586);
#208=VERTEX_POINT('',#589);
#209=VERTEX_POINT('',#592);
#210=VERTEX_POINT('',#595);
#211=VERTEX_POINT('',#599);
#212=EDGE_CURVE('',#182,#182,#152,.T.);
#213=EDGE_CURVE('',#183,#183,#153,.T.);
#214=EDGE_CURVE('',#184,#184,#154,.T.);
#215=EDGE_CURVE('',#185,#185,#155,.T.);
#216=EDGE_CURVE('',#186,#186,#156,.T.);
#217=EDGE_CURVE('',#187,#187,#157,.T.);
#218=EDGE_CURVE('',#188,#188,#158,.T.);
#219=EDGE_CURVE('',#189,#189,#159,.T.);
#220=EDGE_CURVE('',#190,#190,#160,.T.);
#221=EDGE_CURVE('',#191,#191,#161,.T.);
#222=EDGE_CURVE('',#192,#192,#162,.T.);
#223=EDGE_CURVE('',#193,#193,#163,.T.);
#224=EDGE_CURVE('',#194,#194,#164,.T.);
#225=EDGE_CURVE('',#195,#195,#165,.T.);
#226=EDGE_CURVE('',#196,#196,#166,.T.);
#227=EDGE_CURVE('',#197,#197,#167,.T.);
#228=EDGE_CURVE('',#198,#198,#168,.T.);
#229=EDGE_CURVE('',#199,#199,#169,.T.);
#230=EDGE_CURVE('',#200,#200,#170,.T.);
#231=EDGE_CURVE('',#201,#201,#171,.T.);
#232=EDGE_CURVE('',#202,#202,#172,.T.);
#233=EDGE_CURVE('',#203,#203,#173,.T.);
#234=EDGE_CURVE('',#204,#204,#174,.T.);
#235=EDGE_CURVE('',#205,#205,#175,.T.);
#236=EDGE_CURVE('',#206,#206,#176,.T.);
#237=EDGE_CURVE('',#207,#207,#177,.T.);
#238=EDGE_CURVE('',#208,#208,#178,.T.);
#239=EDGE_CURVE('',#209,#209,#179,.T.);
#240=EDGE_CURVE('',#210,#210,#180,.T.);
#241=EDGE_CURVE('',#211,#211,#181,.T.);
#242=ORIENTED_EDGE('',*,*,#212,.F.);
#243=ORIENTED_EDGE('',*,*,#213,.F.);
#244=ORIENTED_EDGE('',*,*,#214,.F.);
#245=ORIENTED_EDGE('',*,*,#215,.F.);
#246=ORIENTED_EDGE('',*,*,#216,.F.);
#247=ORIENTED_EDGE('',*,*,#217,.F.);
#248=ORIENTED_EDGE('',*,*,#218,.F.);
#249=ORIENTED_EDGE('',*,*,#219,.F.);
#250=ORIENTED_EDGE('',*,*,#220,.T.);
#251=ORIENTED_EDGE('',*,*,#221,.F.);
#252=ORIENTED_EDGE('',*,*,#222,.F.);
#253=ORIENTED_EDGE('',*,*,#223,.T.);
#254=ORIENTED_EDGE('',*,*,#224,.F.);
#255=ORIENTED_EDGE('',*,*,#222,.T.);
#256=ORIENTED_EDGE('',*,*,#225,.F.);
#257=ORIENTED_EDGE('',*,*,#224,.T.);
#258=ORIENTED_EDGE('',*,*,#226,.F.);
#259=ORIENTED_EDGE('',*,*,#225,.T.);
#260=ORIENTED_EDGE('',*,*,#227,.F.);
#261=ORIENTED_EDGE('',*,*,#213,.T.);
#262=ORIENTED_EDGE('',*,*,#215,.T.);
#263=ORIENTED_EDGE('',*,*,#217,.T.);
#264=ORIENTED_EDGE('',*,*,#219,.T.);
#265=ORIENTED_EDGE('',*,*,#226,.T.);
#266=ORIENTED_EDGE('',*,*,#228,.F.);
#267=ORIENTED_EDGE('',*,*,#227,.T.);
#268=ORIENTED_EDGE('',*,*,#229,.F.);
#269=ORIENTED_EDGE('',*,*,#228,.T.);
#270=ORIENTED_EDGE('',*,*,#230,.F.);
#271=ORIENTED_EDGE('',*,*,#229,.T.);
#272=ORIENTED_EDGE('',*,*,#230,.T.);
#273=ORIENTED_EDGE('',*,*,#212,.T.);
#274=ORIENTED_EDGE('',*,*,#214,.T.);
#275=ORIENTED_EDGE('',*,*,#216,.T.);
#276=ORIENTED_EDGE('',*,*,#218,.T.);
#277=ORIENTED_EDGE('',*,*,#231,.F.);
#278=ORIENTED_EDGE('',*,*,#220,.F.);
#279=ORIENTED_EDGE('',*,*,#231,.T.);
#280=ORIENTED_EDGE('',*,*,#232,.F.);
#281=ORIENTED_EDGE('',*,*,#221,.T.);
#282=ORIENTED_EDGE('',*,*,#232,.T.);
#283=ORIENTED_EDGE('',*,*,#233,.F.);
#284=ORIENTED_EDGE('',*,*,#234,.F.);
#285=ORIENTED_EDGE('',*,*,#233,.T.);
#286=ORIENTED_EDGE('',*,*,#235,.F.);
#287=ORIENTED_EDGE('',*,*,#234,.T.);
#288=ORIENTED_EDGE('',*,*,#236,.F.);
#289=ORIENTED_EDGE('',*,*,#235,.T.);
#290=ORIENTED_EDGE('',*,*,#237,.F.);
#291=ORIENTED_EDGE('',*,*,#236,.T.);
#292=ORIENTED_EDGE('',*,*,#238,.F.);
#293=ORIENTED_EDGE('',*,*,#237,.T.);
#294=ORIENTED_EDGE('',*,*,#239,.F.);
#295=ORIENTED_EDGE('',*,*,#238,.T.);
#296=ORIENTED_EDGE('',*,*,#240,.F.);
#297=ORIENTED_EDGE('',*,*,#239,.T.);
#298=ORIENTED_EDGE('',*,*,#240,.T.);
#299=ORIENTED_EDGE('',*,*,#241,.F.);
#300=ORIENTED_EDGE('',*,*,#223,.F.);
#301=ORIENTED_EDGE('',*,*,#241,.T.);
#302=CYLINDRICAL_SURFACE('',#341,9.5);
#303=CYLINDRICAL_SURFACE('',#344,9.5);
#304=CYLINDRICAL_SURFACE('',#347,9.5);
#305=CYLINDRICAL_SURFACE('',#350,9.5);
#306=CYLINDRICAL_SURFACE('',#359,2.75);
#307=CYLINDRICAL_SURFACE('',#363,5.04999999999995);
#308=CYLINDRICAL_SURFACE('',#369,76.);
#309=CYLINDRICAL_SURFACE('',#375,46.);
#310=CYLINDRICAL_SURFACE('',#376,24.);
#311=CYLINDRICAL_SURFACE('',#397,1.99999415082641);
#312=ADVANCED_FACE('',(#65,#32),#302,.F.);
#313=ADVANCED_FACE('',(#66,#33),#303,.F.);
#314=ADVANCED_FACE('',(#67,#34),#304,.F.);
#315=ADVANCED_FACE('',(#68,#35),#305,.F.);
#316=ADVANCED_FACE('',(#69,#36),#24,.T.);
#317=ADVANCED_FACE('',(#70,#37),#25,.T.);
#318=ADVANCED_FACE('',(#71,#38),#306,.F.);
#319=ADVANCED_FACE('',(#72,#39),#26,.T.);
#320=ADVANCED_FACE('',(#73,#40),#307,.F.);
#321=ADVANCED_FACE('',(#74,#41,#42,#43,#44,#45),#27,.T.);
#322=ADVANCED_FACE('',(#75,#46),#22,.T.);
#323=ADVANCED_FACE('',(#76,#47),#308,.T.);
#324=ADVANCED_FACE('',(#77,#48),#23,.T.);
#325=ADVANCED_FACE('',(#78,#49,#50,#51,#52,#53),#28,.T.);
#326=ADVANCED_FACE('',(#79,#54),#309,.T.);
#327=ADVANCED_FACE('',(#80,#55),#310,.T.);
#328=ADVANCED_FACE('',(#81,#56),#29,.T.);
#329=ADVANCED_FACE('',(#82,#57),#15,.T.);
#330=ADVANCED_FACE('',(#83,#58),#16,.F.);
#331=ADVANCED_FACE('',(#84,#59),#17,.T.);
#332=ADVANCED_FACE('',(#85,#60),#18,.F.);
#333=ADVANCED_FACE('',(#86,#61),#19,.T.);
#334=ADVANCED_FACE('',(#87,#62),#20,.F.);
#335=ADVANCED_FACE('',(#88,#63),#21,.T.);
#336=ADVANCED_FACE('',(#89),#30,.T.);
#337=ADVANCED_FACE('',(#90),#31,.T.);
#338=ADVANCED_FACE('',(#91,#64),#311,.F.);
#339=CLOSED_SHELL('',(#312,#313,#314,#315,#316,#317,#318,#319,#320,#321,
#322,#323,#324,#325,#326,#327,#328,#329,#330,#331,#332,#333,#334,#335,#336,
#337,#338));
#340=AXIS2_PLACEMENT_3D('placement',#514,#398,#399);
#341=AXIS2_PLACEMENT_3D('',#515,#400,#401);
#342=AXIS2_PLACEMENT_3D('',#517,#402,#403);
#343=AXIS2_PLACEMENT_3D('',#519,#404,#405);
#344=AXIS2_PLACEMENT_3D('',#520,#406,#407);
#345=AXIS2_PLACEMENT_3D('',#522,#408,#409);
#346=AXIS2_PLACEMENT_3D('',#524,#410,#411);
#347=AXIS2_PLACEMENT_3D('',#525,#412,#413);
#348=AXIS2_PLACEMENT_3D('',#527,#414,#415);
#349=AXIS2_PLACEMENT_3D('',#529,#416,#417);
#350=AXIS2_PLACEMENT_3D('',#530,#418,#419);
#351=AXIS2_PLACEMENT_3D('',#532,#420,#421);
#352=AXIS2_PLACEMENT_3D('',#534,#422,#423);
#353=AXIS2_PLACEMENT_3D('',#535,#424,#425);
#354=AXIS2_PLACEMENT_3D('',#537,#426,#427);
#355=AXIS2_PLACEMENT_3D('',#539,#428,#429);
#356=AXIS2_PLACEMENT_3D('',#540,#430,#431);
#357=AXIS2_PLACEMENT_3D('',#542,#432,#433);
#358=AXIS2_PLACEMENT_3D('',#544,#434,#435);
#359=AXIS2_PLACEMENT_3D('',#545,#436,#437);
#360=AXIS2_PLACEMENT_3D('',#547,#438,#439);
#361=AXIS2_PLACEMENT_3D('',#548,#440,#441);
#362=AXIS2_PLACEMENT_3D('',#550,#442,#443);
#363=AXIS2_PLACEMENT_3D('',#551,#444,#445);
#364=AXIS2_PLACEMENT_3D('',#553,#446,#447);
#365=AXIS2_PLACEMENT_3D('',#554,#448,#449);
#366=AXIS2_PLACEMENT_3D('',#556,#450,#451);
#367=AXIS2_PLACEMENT_3D('',#557,#452,#453);
#368=AXIS2_PLACEMENT_3D('',#559,#454,#455);
#369=AXIS2_PLACEMENT_3D('',#560,#456,#457);
#370=AXIS2_PLACEMENT_3D('',#562,#458,#459);
#371=AXIS2_PLACEMENT_3D('',#563,#460,#461);
#372=AXIS2_PLACEMENT_3D('',#565,#462,#463);
#373=AXIS2_PLACEMENT_3D('',#566,#464,#465);
#374=AXIS2_PLACEMENT_3D('',#568,#466,#467);
#375=AXIS2_PLACEMENT_3D('',#569,#468,#469);
#376=AXIS2_PLACEMENT_3D('',#570,#470,#471);
#377=AXIS2_PLACEMENT_3D('',#572,#472,#473);
#378=AXIS2_PLACEMENT_3D('',#573,#474,#475);
#379=AXIS2_PLACEMENT_3D('',#575,#476,#477);
#380=AXIS2_PLACEMENT_3D('',#576,#478,#479);
#381=AXIS2_PLACEMENT_3D('',#578,#480,#481);
#382=AXIS2_PLACEMENT_3D('',#579,#482,#483);
#383=AXIS2_PLACEMENT_3D('',#581,#484,#485);
#384=AXIS2_PLACEMENT_3D('',#582,#486,#487);
#385=AXIS2_PLACEMENT_3D('',#584,#488,#489);
#386=AXIS2_PLACEMENT_3D('',#585,#490,#491);
#387=AXIS2_PLACEMENT_3D('',#587,#492,#493);
#388=AXIS2_PLACEMENT_3D('',#588,#494,#495);
#389=AXIS2_PLACEMENT_3D('',#590,#496,#497);
#390=AXIS2_PLACEMENT_3D('',#591,#498,#499);
#391=AXIS2_PLACEMENT_3D('',#593,#500,#501);
#392=AXIS2_PLACEMENT_3D('',#594,#502,#503);
#393=AXIS2_PLACEMENT_3D('',#596,#504,#505);
#394=AXIS2_PLACEMENT_3D('',#597,#506,#507);
#395=AXIS2_PLACEMENT_3D('',#598,#508,#509);
#396=AXIS2_PLACEMENT_3D('',#600,#510,#511);
#397=AXIS2_PLACEMENT_3D('',#601,#512,#513);
#398=DIRECTION('axis',(0.,0.,1.));
#399=DIRECTION('refdir',(1.,0.,0.));
#400=DIRECTION('center_axis',(0.,-1.,0.));
#401=DIRECTION('ref_axis',(1.83697019872103E-16,0.,-1.));
#402=DIRECTION('center_axis',(0.,1.,0.));
#403=DIRECTION('ref_axis',(1.83697019872103E-16,0.,-1.));
#404=DIRECTION('center_axis',(0.,-1.,0.));
#405=DIRECTION('ref_axis',(1.83697019872103E-16,0.,-1.));
#406=DIRECTION('center_axis',(0.,-1.,0.));
#407=DIRECTION('ref_axis',(1.,0.,1.22464679914735E-16));
#408=DIRECTION('center_axis',(0.,1.,0.));
#409=DIRECTION('ref_axis',(1.,0.,1.22464679914735E-16));
#410=DIRECTION('center_axis',(0.,-1.,0.));
#411=DIRECTION('ref_axis',(1.,0.,1.22464679914735E-16));
#412=DIRECTION('center_axis',(0.,-1.,0.));
#413=DIRECTION('ref_axis',(-6.12323399573677E-17,0.,1.));
#414=DIRECTION('center_axis',(0.,1.,0.));
#415=DIRECTION('ref_axis',(-6.12323399573677E-17,0.,1.));
#416=DIRECTION('center_axis',(0.,-1.,0.));
#417=DIRECTION('ref_axis',(-6.12323399573677E-17,0.,1.));
#418=DIRECTION('center_axis',(0.,-1.,0.));
#419=DIRECTION('ref_axis',(-1.,0.,0.));
#420=DIRECTION('center_axis',(0.,1.,0.));
#421=DIRECTION('ref_axis',(-1.,0.,0.));
#422=DIRECTION('center_axis',(0.,-1.,0.));
#423=DIRECTION('ref_axis',(-1.,0.,0.));
#424=DIRECTION('center_axis',(0.,-1.,0.));
#425=DIRECTION('ref_axis',(0.,0.,-1.));
#426=DIRECTION('center_axis',(0.,-1.,0.));
#427=DIRECTION('ref_axis',(1.,0.,0.));
#428=DIRECTION('center_axis',(0.,-1.,0.));
#429=DIRECTION('ref_axis',(1.,0.,0.));
#430=DIRECTION('center_axis',(0.,1.,0.));
#431=DIRECTION('ref_axis',(0.,0.,1.));
#432=DIRECTION('center_axis',(0.,-1.,0.));
#433=DIRECTION('ref_axis',(1.,0.,0.));
#434=DIRECTION('center_axis',(0.,-1.,0.));
#435=DIRECTION('ref_axis',(1.,0.,0.));
#436=DIRECTION('center_axis',(0.,-1.,0.));
#437=DIRECTION('ref_axis',(1.,0.,0.));
#438=DIRECTION('center_axis',(0.,-1.,0.));
#439=DIRECTION('ref_axis',(1.,0.,0.));
#440=DIRECTION('center_axis',(0.,1.,0.));
#441=DIRECTION('ref_axis',(0.,0.,1.));
#442=DIRECTION('center_axis',(0.,-1.,0.));
#443=DIRECTION('ref_axis',(1.,0.,0.));
#444=DIRECTION('center_axis',(0.,-1.,0.));
#445=DIRECTION('ref_axis',(1.,0.,0.));
#446=DIRECTION('center_axis',(0.,-1.,0.));
#447=DIRECTION('ref_axis',(1.,0.,0.));
#448=DIRECTION('center_axis',(0.,1.,0.));
#449=DIRECTION('ref_axis',(0.,0.,1.));
#450=DIRECTION('center_axis',(0.,-1.,0.));
#451=DIRECTION('ref_axis',(1.,0.,0.));
#452=DIRECTION('center_axis',(0.,-1.,0.));
#453=DIRECTION('ref_axis',(1.,0.,0.));
#454=DIRECTION('center_axis',(0.,-1.,0.));
#455=DIRECTION('ref_axis',(1.,0.,0.));
#456=DIRECTION('center_axis',(0.,-1.,0.));
#457=DIRECTION('ref_axis',(1.,0.,0.));
#458=DIRECTION('center_axis',(0.,-1.,0.));
#459=DIRECTION('ref_axis',(1.,0.,0.));
#460=DIRECTION('center_axis',(0.,1.,0.));
#461=DIRECTION('ref_axis',(1.,0.,0.));
#462=DIRECTION('center_axis',(0.,-1.,0.));
#463=DIRECTION('ref_axis',(1.,0.,0.));
#464=DIRECTION('center_axis',(0.,-1.,0.));
#465=DIRECTION('ref_axis',(0.,0.,-1.));
#466=DIRECTION('center_axis',(0.,-1.,0.));
#467=DIRECTION('ref_axis',(1.,0.,0.));
#468=DIRECTION('center_axis',(0.,-1.,0.));
#469=DIRECTION('ref_axis',(1.,0.,0.));
#470=DIRECTION('center_axis',(0.,-1.,0.));
#471=DIRECTION('ref_axis',(1.,0.,0.));
#472=DIRECTION('center_axis',(0.,-1.,0.));
#473=DIRECTION('ref_axis',(1.,0.,0.));
#474=DIRECTION('center_axis',(0.,-1.,0.));
#475=DIRECTION('ref_axis',(0.,0.,-1.));
#476=DIRECTION('center_axis',(0.,-1.,0.));
#477=DIRECTION('ref_axis',(1.,0.,0.));
#478=DIRECTION('center_axis',(0.,-1.,0.));
#479=DIRECTION('ref_axis',(0.,0.,-1.));
#480=DIRECTION('center_axis',(0.,-1.,0.));
#481=DIRECTION('ref_axis',(1.,0.,0.));
#482=DIRECTION('center_axis',(0.,-1.,0.));
#483=DIRECTION('ref_axis',(0.,0.,-1.));
#484=DIRECTION('center_axis',(0.,-1.,0.));
#485=DIRECTION('ref_axis',(1.,0.,0.));
#486=DIRECTION('center_axis',(0.,-1.,0.));
#487=DIRECTION('ref_axis',(0.,0.,-1.));
#488=DIRECTION('center_axis',(0.,-1.,0.));
#489=DIRECTION('ref_axis',(1.,0.,0.));
#490=DIRECTION('center_axis',(0.,-1.,0.));
#491=DIRECTION('ref_axis',(0.,0.,-1.));
#492=DIRECTION('center_axis',(0.,-1.,0.));
#493=DIRECTION('ref_axis',(1.,0.,0.));
#494=DIRECTION('center_axis',(0.,-1.,0.));
#495=DIRECTION('ref_axis',(0.,0.,-1.));
#496=DIRECTION('center_axis',(0.,-1.,0.));
#497=DIRECTION('ref_axis',(1.,0.,0.));
#498=DIRECTION('center_axis',(0.,-1.,0.));
#499=DIRECTION('ref_axis',(0.,0.,-1.));
#500=DIRECTION('center_axis',(0.,-1.,0.));
#501=DIRECTION('ref_axis',(1.,0.,0.));
#502=DIRECTION('center_axis',(0.,-1.,0.));
#503=DIRECTION('ref_axis',(0.,0.,-1.));
#504=DIRECTION('center_axis',(0.,-1.,0.));
#505=DIRECTION('ref_axis',(1.,0.,0.));
#506=DIRECTION('center_axis',(0.,-1.,0.));
#507=DIRECTION('ref_axis',(0.,0.,-1.));
#508=DIRECTION('center_axis',(0.,1.,0.));
#509=DIRECTION('ref_axis',(0.,0.,1.));
#510=DIRECTION('center_axis',(0.,-1.,0.));
#511=DIRECTION('ref_axis',(1.,0.,0.));
#512=DIRECTION('center_axis',(0.,-1.,0.));
#513=DIRECTION('ref_axis',(1.,0.,0.));
#514=CARTESIAN_POINT('',(0.,0.,0.));
#515=CARTESIAN_POINT('Origin',(60.5,19.,1.11136697022622E-14));
#516=CARTESIAN_POINT('',(60.5,1.5,9.50000000000001));
#517=CARTESIAN_POINT('Origin',(60.5,1.5,1.11136697022622E-14));
#518=CARTESIAN_POINT('',(60.5,19.,9.50000000000001));
#519=CARTESIAN_POINT('Origin',(60.5,19.,1.11136697022622E-14));
#520=CARTESIAN_POINT('Origin',(-7.40911313484149E-15,19.,60.5));
#521=CARTESIAN_POINT('',(-9.50000000000001,1.5,60.5));
#522=CARTESIAN_POINT('Origin',(-7.40911313484149E-15,1.5,60.5));
#523=CARTESIAN_POINT('',(-9.50000000000001,19.,60.5));
#524=CARTESIAN_POINT('Origin',(-7.40911313484149E-15,19.,60.5));
#525=CARTESIAN_POINT('Origin',(-60.5,19.,-3.70455656742074E-15));
#526=CARTESIAN_POINT('',(-60.5,1.5,-9.5));
#527=CARTESIAN_POINT('Origin',(-60.5,1.5,-3.70455656742074E-15));
#528=CARTESIAN_POINT('',(-60.5,19.,-9.5));
#529=CARTESIAN_POINT('Origin',(-60.5,19.,-3.70455656742074E-15));
#530=CARTESIAN_POINT('Origin',(0.,19.,-60.5));
#531=CARTESIAN_POINT('',(9.5,1.5,-60.5));
#532=CARTESIAN_POINT('Origin',(0.,1.5,-60.5));
#533=CARTESIAN_POINT('',(9.5,19.,-60.5));
#534=CARTESIAN_POINT('Origin',(0.,19.,-60.5));
#535=CARTESIAN_POINT('Origin',(23.9999970754132,2.63677968348475E-15,0.));
#536=CARTESIAN_POINT('',(46.,5.27355936696949E-15,0.));
#537=CARTESIAN_POINT('Origin',(0.,5.27355936696949E-15,0.));
#538=CARTESIAN_POINT('',(24.,2.63677968348475E-15,0.));
#539=CARTESIAN_POINT('Origin',(0.,2.63677968348475E-15,0.));
#540=CARTESIAN_POINT('Origin',(2.37499800276848,17.2,0.));
#541=CARTESIAN_POINT('',(2.75,17.2,0.));
#542=CARTESIAN_POINT('Origin',(0.,17.2,0.));
#543=CARTESIAN_POINT('',(1.99999600553697,17.2,0.));
#544=CARTESIAN_POINT('Origin',(0.,17.2,0.));
#545=CARTESIAN_POINT('Origin',(0.,17.7,0.));
#546=CARTESIAN_POINT('',(2.75,18.2,0.));
#547=CARTESIAN_POINT('Origin',(0.,18.2,0.));
#548=CARTESIAN_POINT('Origin',(3.89999999999997,18.2,0.));
#549=CARTESIAN_POINT('',(5.04999999999995,18.2,0.));
#550=CARTESIAN_POINT('Origin',(0.,18.2,0.));
#551=CARTESIAN_POINT('Origin',(0.,18.6,0.));
#552=CARTESIAN_POINT('',(5.04999999999995,19.,0.));
#553=CARTESIAN_POINT('Origin',(0.,19.,0.));
#554=CARTESIAN_POINT('Origin',(40.025,19.,0.));
#555=CARTESIAN_POINT('',(75.,19.,0.));
#556=CARTESIAN_POINT('Origin',(0.,19.,0.));
#557=CARTESIAN_POINT('Origin',(0.,18.5,0.));
#558=CARTESIAN_POINT('',(76.,18.,0.));
#559=CARTESIAN_POINT('Origin',(0.,18.,0.));
#560=CARTESIAN_POINT('Origin',(0.,10.25,0.));
#561=CARTESIAN_POINT('',(76.,2.50000000000001,0.));
#562=CARTESIAN_POINT('Origin',(0.,2.50000000000001,0.));
#563=CARTESIAN_POINT('Origin',(0.,2.00000000000001,0.));
#564=CARTESIAN_POINT('',(75.,1.5,0.));
#565=CARTESIAN_POINT('Origin',(0.,1.5,0.));
#566=CARTESIAN_POINT('Origin',(60.5,1.5,0.));
#567=CARTESIAN_POINT('',(46.,1.5,0.));
#568=CARTESIAN_POINT('Origin',(0.,1.5,0.));
#569=CARTESIAN_POINT('Origin',(0.,0.750000000000002,0.));
#570=CARTESIAN_POINT('Origin',(0.,-25.,0.));
#571=CARTESIAN_POINT('',(24.,-50.,0.));
#572=CARTESIAN_POINT('Origin',(0.,-50.,0.));
#573=CARTESIAN_POINT('Origin',(23.0912858324943,-50.,0.));
#574=CARTESIAN_POINT('',(22.1825716649886,-50.,0.));
#575=CARTESIAN_POINT('Origin',(0.,-50.,0.));
#576=CARTESIAN_POINT('Origin',(0.,-47.0910632437862,0.));
#577=CARTESIAN_POINT('',(20.3019806067131,-49.3103627556111,0.));
#578=CARTESIAN_POINT('Origin',(0.,-49.3103627556111,0.));
#579=CARTESIAN_POINT('Origin',(0.,-50.7200136165944,0.));
#580=CARTESIAN_POINT('',(18.0442357472333,-49.208886865023,0.));
#581=CARTESIAN_POINT('Origin',(0.,-49.208886865023,0.));
#582=CARTESIAN_POINT('Origin',(0.,-46.8573241072048,0.));
#583=CARTESIAN_POINT('',(15.0853109301951,-49.4197636443865,0.));
#584=CARTESIAN_POINT('Origin',(0.,-49.4197636443865,0.));
#585=CARTESIAN_POINT('Origin',(0.,-52.5404161532035,0.));
#586=CARTESIAN_POINT('',(11.8637712006164,-49.4428351497258,0.));
#587=CARTESIAN_POINT('Origin',(0.,-49.4428351497258,0.));
#588=CARTESIAN_POINT('Origin',(0.,-47.4671236056983,0.));
#589=CARTESIAN_POINT('',(9.78061630060448,-49.442848092344,0.));
#590=CARTESIAN_POINT('Origin',(0.,-49.442848092344,0.));
#591=CARTESIAN_POINT('Origin',(0.,-52.7793481522889,0.));
#592=CARTESIAN_POINT('',(5.90062047765333,-49.660497334267,0.));
#593=CARTESIAN_POINT('Origin',(0.,-49.660497334267,0.));
#594=CARTESIAN_POINT('Origin',(0.,-48.0387206880066,0.));
#595=CARTESIAN_POINT('',(4.79768936044913,-50.,0.));
#596=CARTESIAN_POINT('Origin',(0.,-50.,0.));
#597=CARTESIAN_POINT('Origin',(0.999997075413205,-50.,0.));
#598=CARTESIAN_POINT('Origin',(0.999997075413205,-47.6446050990591,0.));
#599=CARTESIAN_POINT('',(1.99999415082641,-47.6446050990591,0.));
#600=CARTESIAN_POINT('Origin',(0.,-47.6446050990591,0.));
#601=CARTESIAN_POINT('Origin',(0.,-23.8223025495296,0.));
#602=UNCERTAINTY_MEASURE_WITH_UNIT(LENGTH_MEASURE(0.01),#606,
'DISTANCE_ACCURACY_VALUE',
'Maximum model space distance between geometric entities at asserted c
onnectivities');
#603=UNCERTAINTY_MEASURE_WITH_UNIT(LENGTH_MEASURE(1.E-6),#606,
'DISTANCE_ACCURACY_VALUE',
'Maximum model space distance between geometric entities at asserted c
onnectivities');
#604=(
GEOMETRIC_REPRESENTATION_CONTEXT(3)
GLOBAL_UNCERTAINTY_ASSIGNED_CONTEXT((#602))
GLOBAL_UNIT_ASSIGNED_CONTEXT((#606,#609,#607))
REPRESENTATION_CONTEXT('','3D')
);
#605=(
GEOMETRIC_REPRESENTATION_CONTEXT(3)
GLOBAL_UNCERTAINTY_ASSIGNED_CONTEXT((#603))
GLOBAL_UNIT_ASSIGNED_CONTEXT((#606,#609,#607))
REPRESENTATION_CONTEXT('','3D')
);
#606=(
LENGTH_UNIT()
NAMED_UNIT(*)
SI_UNIT(.MILLI.,.METRE.)
);
#607=(
NAMED_UNIT(*)
SI_UNIT($,.STERADIAN.)
SOLID_ANGLE_UNIT()
);
#608=DIMENSIONAL_EXPONENTS(0.,0.,0.,0.,0.,0.,0.);
#609=(
CONVERSION_BASED_UNIT('degree',#611)
NAMED_UNIT(#608)
PLANE_ANGLE_UNIT()
);
#610=(
NAMED_UNIT(*)
PLANE_ANGLE_UNIT()
SI_UNIT($,.RADIAN.)
);
#611=PLANE_ANGLE_MEASURE_WITH_UNIT(PLANE_ANGLE_MEASURE(0.01745329252),#610);
#612=SHAPE_DEFINITION_REPRESENTATION(#613,#614);
#613=PRODUCT_DEFINITION_SHAPE('',$,#616);
#614=SHAPE_REPRESENTATION('',(#340),#604);
#615=PRODUCT_DEFINITION_CONTEXT('part definition',#620,'design');
#616=PRODUCT_DEFINITION('A0012935','A0012935',#617,#615);
#617=PRODUCT_DEFINITION_FORMATION('',$,#622);
#618=PRODUCT_RELATED_PRODUCT_CATEGORY('A0012935','A0012935',(#622));
#619=APPLICATION_PROTOCOL_DEFINITION('international standard',
'automotive_design',2009,#620);
#620=APPLICATION_CONTEXT(
'Core Data for Automotive Mechanical Design Process');
#621=PRODUCT_CONTEXT('part definition',#620,'mechanical');
#622=PRODUCT('A0012935','A0012935',$,(#621));
#623=PRESENTATION_STYLE_ASSIGNMENT((#624));
#624=SURFACE_STYLE_USAGE(.BOTH.,#625);
#625=SURFACE_SIDE_STYLE($,(#626));
#626=SURFACE_STYLE_FILL_AREA(#627);
#627=FILL_AREA_STYLE($,(#628));
#628=FILL_AREA_STYLE_COLOUR($,#629);
#629=COLOUR_RGB('',0.63921568627451,0.63921568627451,0.686274509803922);
ENDSEC;
END-ISO-10303-21;
