ISO-10303-21;
HEADER;
/* Generated by software containing ST-Developer
 * from STEP Tools, Inc. (www.steptools.com) 
 */

FILE_DESCRIPTION(
/* description */ (''),
/* implementation_level */ '2;1');

FILE_NAME(
/* name */ 
'J:\\AM_Zeichnung\\Inventor\\PROJEKT_STAMMORDNER\\Druckmittler\\Druckm
ittler_Baugruppen\\MD60\\Step\\solid\\31326W.stp',
/* time_stamp */ '2018-02-05T12:25:21+01:00',
/* author */ ('acgl'),
/* organization */ (''),
/* preprocessor_version */ 'ST-DEVELOPER v15.6',
/* originating_system */ 'Autodesk Inventor 2015',
/* authorisation */ '');

FILE_SCHEMA (('AUTOMOTIVE_DESIGN { 1 0 10303 214 3 1 1 }'));
ENDSEC;

DATA;
#10=MECHANICAL_DESIGN_GEOMETRIC_PRESENTATION_REPRESENTATION('',(#194,#202,
#195,#201,#196,#199,#200,#198,#193,#203,#197,#186,#185,#187,#190,#191,#188,
#189,#192),#387);
#11=SHAPE_REPRESENTATION_RELATIONSHIP('SRR','None',#397,#12);
#12=ADVANCED_BREP_SHAPE_REPRESENTATION($,(#13),#386);
#13=MANIFOLD_SOLID_BREP('Volumenk\X\F6rper1',#222);
#14=CONICAL_SURFACE('',#233,2.89277682254497,70.);
#15=CONICAL_SURFACE('',#240,3.39609858982434,23.0000000000005);
#16=CONICAL_SURFACE('',#248,3.65390141017566,23.);
#17=TOROIDAL_SURFACE('',#230,1.90173729605452,0.05);
#18=TOROIDAL_SURFACE('',#237,3.32470691716732,0.08);
#19=TOROIDAL_SURFACE('',#243,3.72529308283268,0.08);
#20=TOROIDAL_SURFACE('',#250,3.795,0.08);
#21=TOROIDAL_SURFACE('',#258,3.525,0.12);
#22=FACE_BOUND('',#62,.T.);
#23=FACE_BOUND('',#65,.T.);
#24=FACE_BOUND('',#67,.T.);
#25=FACE_BOUND('',#69,.T.);
#26=FACE_BOUND('',#71,.T.);
#27=FACE_BOUND('',#73,.T.);
#28=FACE_BOUND('',#75,.T.);
#29=FACE_BOUND('',#77,.T.);
#30=FACE_BOUND('',#79,.T.);
#31=FACE_BOUND('',#81,.T.);
#32=FACE_BOUND('',#83,.T.);
#33=FACE_BOUND('',#85,.T.);
#34=FACE_BOUND('',#87,.T.);
#35=FACE_BOUND('',#89,.T.);
#36=FACE_BOUND('',#91,.T.);
#37=FACE_BOUND('',#93,.T.);
#38=CYLINDRICAL_SURFACE('',#226,2.4);
#39=CYLINDRICAL_SURFACE('',#252,3.875);
#40=CYLINDRICAL_SURFACE('',#253,0.275);
#41=CYLINDRICAL_SURFACE('',#257,0.505);
#42=FACE_OUTER_BOUND('',#60,.T.);
#43=FACE_OUTER_BOUND('',#61,.T.);
#44=FACE_OUTER_BOUND('',#63,.T.);
#45=FACE_OUTER_BOUND('',#64,.T.);
#46=FACE_OUTER_BOUND('',#66,.T.);
#47=FACE_OUTER_BOUND('',#68,.T.);
#48=FACE_OUTER_BOUND('',#70,.T.);
#49=FACE_OUTER_BOUND('',#72,.T.);
#50=FACE_OUTER_BOUND('',#74,.T.);
#51=FACE_OUTER_BOUND('',#76,.T.);
#52=FACE_OUTER_BOUND('',#78,.T.);
#53=FACE_OUTER_BOUND('',#80,.T.);
#54=FACE_OUTER_BOUND('',#82,.T.);
#55=FACE_OUTER_BOUND('',#84,.T.);
#56=FACE_OUTER_BOUND('',#86,.T.);
#57=FACE_OUTER_BOUND('',#88,.T.);
#58=FACE_OUTER_BOUND('',#90,.T.);
#59=FACE_OUTER_BOUND('',#92,.T.);
#60=EDGE_LOOP('',(#145));
#61=EDGE_LOOP('',(#146));
#62=EDGE_LOOP('',(#147));
#63=EDGE_LOOP('',(#148));
#64=EDGE_LOOP('',(#149));
#65=EDGE_LOOP('',(#150));
#66=EDGE_LOOP('',(#151));
#67=EDGE_LOOP('',(#152));
#68=EDGE_LOOP('',(#153));
#69=EDGE_LOOP('',(#154));
#70=EDGE_LOOP('',(#155));
#71=EDGE_LOOP('',(#156));
#72=EDGE_LOOP('',(#157));
#73=EDGE_LOOP('',(#158));
#74=EDGE_LOOP('',(#159));
#75=EDGE_LOOP('',(#160));
#76=EDGE_LOOP('',(#161));
#77=EDGE_LOOP('',(#162));
#78=EDGE_LOOP('',(#163));
#79=EDGE_LOOP('',(#164));
#80=EDGE_LOOP('',(#165));
#81=EDGE_LOOP('',(#166));
#82=EDGE_LOOP('',(#167));
#83=EDGE_LOOP('',(#168));
#84=EDGE_LOOP('',(#169));
#85=EDGE_LOOP('',(#170));
#86=EDGE_LOOP('',(#171));
#87=EDGE_LOOP('',(#172));
#88=EDGE_LOOP('',(#173));
#89=EDGE_LOOP('',(#174));
#90=EDGE_LOOP('',(#175));
#91=EDGE_LOOP('',(#176));
#92=EDGE_LOOP('',(#177));
#93=EDGE_LOOP('',(#178));
#94=CIRCLE('',#225,0.275);
#95=CIRCLE('',#227,2.4);
#96=CIRCLE('',#228,2.4);
#97=CIRCLE('',#231,1.90173729605452);
#98=CIRCLE('',#232,1.91883830322081);
#99=CIRCLE('',#234,3.82236161146605);
#100=CIRCLE('',#236,0.505);
#101=CIRCLE('',#238,3.39834730544352);
#102=CIRCLE('',#239,3.32470691716732);
#103=CIRCLE('',#241,3.41453941758571);
#104=CIRCLE('',#244,3.72529308283268);
#105=CIRCLE('',#245,3.65165269455648);
#106=CIRCLE('',#247,3.875);
#107=CIRCLE('',#249,3.63546058241429);
#108=CIRCLE('',#251,3.875);
#109=CIRCLE('',#254,0.275);
#110=CIRCLE('',#256,0.505);
#111=VERTEX_POINT('',#333);
#112=VERTEX_POINT('',#336);
#113=VERTEX_POINT('',#338);
#114=VERTEX_POINT('',#342);
#115=VERTEX_POINT('',#344);
#116=VERTEX_POINT('',#347);
#117=VERTEX_POINT('',#350);
#118=VERTEX_POINT('',#353);
#119=VERTEX_POINT('',#355);
#120=VERTEX_POINT('',#358);
#121=VERTEX_POINT('',#362);
#122=VERTEX_POINT('',#364);
#123=VERTEX_POINT('',#367);
#124=VERTEX_POINT('',#370);
#125=VERTEX_POINT('',#373);
#126=VERTEX_POINT('',#377);
#127=VERTEX_POINT('',#380);
#128=EDGE_CURVE('',#111,#111,#94,.T.);
#129=EDGE_CURVE('',#112,#112,#95,.T.);
#130=EDGE_CURVE('',#113,#113,#96,.T.);
#131=EDGE_CURVE('',#114,#114,#97,.T.);
#132=EDGE_CURVE('',#115,#115,#98,.T.);
#133=EDGE_CURVE('',#116,#116,#99,.T.);
#134=EDGE_CURVE('',#117,#117,#100,.T.);
#135=EDGE_CURVE('',#118,#118,#101,.T.);
#136=EDGE_CURVE('',#119,#119,#102,.T.);
#137=EDGE_CURVE('',#120,#120,#103,.T.);
#138=EDGE_CURVE('',#121,#121,#104,.T.);
#139=EDGE_CURVE('',#122,#122,#105,.T.);
#140=EDGE_CURVE('',#123,#123,#106,.T.);
#141=EDGE_CURVE('',#124,#124,#107,.T.);
#142=EDGE_CURVE('',#125,#125,#108,.T.);
#143=EDGE_CURVE('',#126,#126,#109,.T.);
#144=EDGE_CURVE('',#127,#127,#110,.T.);
#145=ORIENTED_EDGE('',*,*,#128,.F.);
#146=ORIENTED_EDGE('',*,*,#129,.F.);
#147=ORIENTED_EDGE('',*,*,#130,.F.);
#148=ORIENTED_EDGE('',*,*,#129,.T.);
#149=ORIENTED_EDGE('',*,*,#131,.T.);
#150=ORIENTED_EDGE('',*,*,#132,.T.);
#151=ORIENTED_EDGE('',*,*,#133,.F.);
#152=ORIENTED_EDGE('',*,*,#132,.F.);
#153=ORIENTED_EDGE('',*,*,#131,.F.);
#154=ORIENTED_EDGE('',*,*,#134,.T.);
#155=ORIENTED_EDGE('',*,*,#135,.T.);
#156=ORIENTED_EDGE('',*,*,#136,.T.);
#157=ORIENTED_EDGE('',*,*,#137,.T.);
#158=ORIENTED_EDGE('',*,*,#135,.F.);
#159=ORIENTED_EDGE('',*,*,#136,.F.);
#160=ORIENTED_EDGE('',*,*,#130,.T.);
#161=ORIENTED_EDGE('',*,*,#138,.T.);
#162=ORIENTED_EDGE('',*,*,#139,.T.);
#163=ORIENTED_EDGE('',*,*,#140,.T.);
#164=ORIENTED_EDGE('',*,*,#138,.F.);
#165=ORIENTED_EDGE('',*,*,#141,.F.);
#166=ORIENTED_EDGE('',*,*,#139,.F.);
#167=ORIENTED_EDGE('',*,*,#133,.T.);
#168=ORIENTED_EDGE('',*,*,#142,.T.);
#169=ORIENTED_EDGE('',*,*,#140,.F.);
#170=ORIENTED_EDGE('',*,*,#142,.F.);
#171=ORIENTED_EDGE('',*,*,#143,.F.);
#172=ORIENTED_EDGE('',*,*,#128,.T.);
#173=ORIENTED_EDGE('',*,*,#144,.F.);
#174=ORIENTED_EDGE('',*,*,#143,.T.);
#175=ORIENTED_EDGE('',*,*,#134,.F.);
#176=ORIENTED_EDGE('',*,*,#144,.T.);
#177=ORIENTED_EDGE('',*,*,#137,.F.);
#178=ORIENTED_EDGE('',*,*,#141,.T.);
#179=PLANE('',#224);
#180=PLANE('',#229);
#181=PLANE('',#235);
#182=PLANE('',#242);
#183=PLANE('',#246);
#184=PLANE('',#255);
#185=STYLED_ITEM('',(#407),#204);
#186=STYLED_ITEM('',(#408),#205);
#187=STYLED_ITEM('',(#408),#206);
#188=STYLED_ITEM('',(#407),#207);
#189=STYLED_ITEM('',(#407),#208);
#190=STYLED_ITEM('',(#407),#209);
#191=STYLED_ITEM('',(#407),#210);
#192=STYLED_ITEM('',(#407),#211);
#193=STYLED_ITEM('',(#407),#212);
#194=STYLED_ITEM('',(#407),#213);
#195=STYLED_ITEM('',(#407),#214);
#196=STYLED_ITEM('',(#407),#215);
#197=STYLED_ITEM('',(#407),#216);
#198=STYLED_ITEM('',(#407),#217);
#199=STYLED_ITEM('',(#407),#218);
#200=STYLED_ITEM('',(#407),#219);
#201=STYLED_ITEM('',(#407),#220);
#202=STYLED_ITEM('',(#407),#221);
#203=STYLED_ITEM('',(#406),#13);
#204=ADVANCED_FACE('',(#42),#179,.F.);
#205=ADVANCED_FACE('',(#43,#22),#38,.T.);
#206=ADVANCED_FACE('',(#44),#180,.T.);
#207=ADVANCED_FACE('',(#45,#23),#17,.T.);
#208=ADVANCED_FACE('',(#46,#24),#14,.T.);
#209=ADVANCED_FACE('',(#47,#25),#181,.T.);
#210=ADVANCED_FACE('',(#48,#26),#18,.T.);
#211=ADVANCED_FACE('',(#49,#27),#15,.T.);
#212=ADVANCED_FACE('',(#50,#28),#182,.T.);
#213=ADVANCED_FACE('',(#51,#29),#19,.T.);
#214=ADVANCED_FACE('',(#52,#30),#183,.T.);
#215=ADVANCED_FACE('',(#53,#31),#16,.F.);
#216=ADVANCED_FACE('',(#54,#32),#20,.T.);
#217=ADVANCED_FACE('',(#55,#33),#39,.T.);
#218=ADVANCED_FACE('',(#56,#34),#40,.F.);
#219=ADVANCED_FACE('',(#57,#35),#184,.T.);
#220=ADVANCED_FACE('',(#58,#36),#41,.F.);
#221=ADVANCED_FACE('',(#59,#37),#21,.F.);
#222=CLOSED_SHELL('',(#204,#205,#206,#207,#208,#209,#210,#211,#212,#213,
#214,#215,#216,#217,#218,#219,#220,#221));
#223=AXIS2_PLACEMENT_3D('placement',#331,#259,#260);
#224=AXIS2_PLACEMENT_3D('',#332,#261,#262);
#225=AXIS2_PLACEMENT_3D('',#334,#263,#264);
#226=AXIS2_PLACEMENT_3D('',#335,#265,#266);
#227=AXIS2_PLACEMENT_3D('',#337,#267,#268);
#228=AXIS2_PLACEMENT_3D('',#339,#269,#270);
#229=AXIS2_PLACEMENT_3D('',#340,#271,#272);
#230=AXIS2_PLACEMENT_3D('',#341,#273,#274);
#231=AXIS2_PLACEMENT_3D('',#343,#275,#276);
#232=AXIS2_PLACEMENT_3D('',#345,#277,#278);
#233=AXIS2_PLACEMENT_3D('',#346,#279,#280);
#234=AXIS2_PLACEMENT_3D('',#348,#281,#282);
#235=AXIS2_PLACEMENT_3D('',#349,#283,#284);
#236=AXIS2_PLACEMENT_3D('',#351,#285,#286);
#237=AXIS2_PLACEMENT_3D('',#352,#287,#288);
#238=AXIS2_PLACEMENT_3D('',#354,#289,#290);
#239=AXIS2_PLACEMENT_3D('',#356,#291,#292);
#240=AXIS2_PLACEMENT_3D('',#357,#293,#294);
#241=AXIS2_PLACEMENT_3D('',#359,#295,#296);
#242=AXIS2_PLACEMENT_3D('',#360,#297,#298);
#243=AXIS2_PLACEMENT_3D('',#361,#299,#300);
#244=AXIS2_PLACEMENT_3D('',#363,#301,#302);
#245=AXIS2_PLACEMENT_3D('',#365,#303,#304);
#246=AXIS2_PLACEMENT_3D('',#366,#305,#306);
#247=AXIS2_PLACEMENT_3D('',#368,#307,#308);
#248=AXIS2_PLACEMENT_3D('',#369,#309,#310);
#249=AXIS2_PLACEMENT_3D('',#371,#311,#312);
#250=AXIS2_PLACEMENT_3D('',#372,#313,#314);
#251=AXIS2_PLACEMENT_3D('',#374,#315,#316);
#252=AXIS2_PLACEMENT_3D('',#375,#317,#318);
#253=AXIS2_PLACEMENT_3D('',#376,#319,#320);
#254=AXIS2_PLACEMENT_3D('',#378,#321,#322);
#255=AXIS2_PLACEMENT_3D('',#379,#323,#324);
#256=AXIS2_PLACEMENT_3D('',#381,#325,#326);
#257=AXIS2_PLACEMENT_3D('',#382,#327,#328);
#258=AXIS2_PLACEMENT_3D('',#383,#329,#330);
#259=DIRECTION('axis',(0.,0.,1.));
#260=DIRECTION('refdir',(1.,0.,0.));
#261=DIRECTION('center_axis',(0.,-1.,0.));
#262=DIRECTION('ref_axis',(0.,0.,-1.));
#263=DIRECTION('center_axis',(0.,-1.,0.));
#264=DIRECTION('ref_axis',(1.,0.,0.));
#265=DIRECTION('center_axis',(-5.55111512312578E-17,-1.,-1.59363782841208E-16));
#266=DIRECTION('ref_axis',(1.,-5.55111512312579E-17,4.9960036108132E-16));
#267=DIRECTION('center_axis',(-5.55111512312578E-17,-1.,-1.59363782841208E-16));
#268=DIRECTION('ref_axis',(1.,-5.55111512312579E-17,4.9960036108132E-16));
#269=DIRECTION('center_axis',(0.,1.,0.));
#270=DIRECTION('ref_axis',(1.,-5.55111512312579E-17,4.9960036108132E-16));
#271=DIRECTION('center_axis',(-5.55111512312578E-17,-1.,-1.59363782841208E-16));
#272=DIRECTION('ref_axis',(4.44089209850063E-16,1.59594559789866E-16,-1.));
#273=DIRECTION('center_axis',(0.,-1.,0.));
#274=DIRECTION('ref_axis',(0.,0.,-1.));
#275=DIRECTION('center_axis',(0.,-1.,0.));
#276=DIRECTION('ref_axis',(-1.,0.,1.22464679914735E-16));
#277=DIRECTION('center_axis',(0.,1.,0.));
#278=DIRECTION('ref_axis',(-1.,0.,0.));
#279=DIRECTION('center_axis',(0.,-1.,0.));
#280=DIRECTION('ref_axis',(1.,0.,0.));
#281=DIRECTION('center_axis',(0.,-1.,0.));
#282=DIRECTION('ref_axis',(-1.,0.,-2.57975626525837E-32));
#283=DIRECTION('center_axis',(0.,1.,0.));
#284=DIRECTION('ref_axis',(0.,0.,1.));
#285=DIRECTION('center_axis',(0.,-1.,0.));
#286=DIRECTION('ref_axis',(1.,0.,0.));
#287=DIRECTION('center_axis',(0.,-1.,0.));
#288=DIRECTION('ref_axis',(0.,0.,-1.));
#289=DIRECTION('center_axis',(0.,-1.,0.));
#290=DIRECTION('ref_axis',(-1.,0.,0.));
#291=DIRECTION('center_axis',(0.,1.,0.));
#292=DIRECTION('ref_axis',(-1.,0.,1.22464679914735E-16));
#293=DIRECTION('center_axis',(0.,1.,0.));
#294=DIRECTION('ref_axis',(1.,0.,0.));
#295=DIRECTION('center_axis',(0.,-1.,0.));
#296=DIRECTION('ref_axis',(1.,0.,0.));
#297=DIRECTION('center_axis',(0.,-1.,0.));
#298=DIRECTION('ref_axis',(0.,0.,-1.));
#299=DIRECTION('center_axis',(0.,-1.,0.));
#300=DIRECTION('ref_axis',(0.,0.,-1.));
#301=DIRECTION('center_axis',(0.,-1.,0.));
#302=DIRECTION('ref_axis',(-1.,0.,1.22464679914735E-16));
#303=DIRECTION('center_axis',(0.,1.,0.));
#304=DIRECTION('ref_axis',(-1.,0.,0.));
#305=DIRECTION('center_axis',(0.,-1.,0.));
#306=DIRECTION('ref_axis',(0.,0.,-1.));
#307=DIRECTION('center_axis',(0.,-1.,0.));
#308=DIRECTION('ref_axis',(1.,0.,0.));
#309=DIRECTION('center_axis',(0.,-1.,0.));
#310=DIRECTION('ref_axis',(1.,0.,0.));
#311=DIRECTION('center_axis',(0.,-1.,0.));
#312=DIRECTION('ref_axis',(1.,0.,0.));
#313=DIRECTION('center_axis',(0.,-1.,0.));
#314=DIRECTION('ref_axis',(0.,0.,-1.));
#315=DIRECTION('center_axis',(0.,1.,0.));
#316=DIRECTION('ref_axis',(-1.,0.,1.22464679914735E-16));
#317=DIRECTION('center_axis',(0.,-1.,0.));
#318=DIRECTION('ref_axis',(1.,0.,0.));
#319=DIRECTION('center_axis',(0.,-1.,0.));
#320=DIRECTION('ref_axis',(1.,0.,0.));
#321=DIRECTION('center_axis',(0.,-1.,0.));
#322=DIRECTION('ref_axis',(1.,0.,0.));
#323=DIRECTION('center_axis',(0.,1.,0.));
#324=DIRECTION('ref_axis',(0.,0.,1.));
#325=DIRECTION('center_axis',(0.,-1.,0.));
#326=DIRECTION('ref_axis',(1.,0.,0.));
#327=DIRECTION('center_axis',(0.,-1.,0.));
#328=DIRECTION('ref_axis',(1.,0.,0.));
#329=DIRECTION('center_axis',(0.,-1.,0.));
#330=DIRECTION('ref_axis',(0.,0.,-1.));
#331=CARTESIAN_POINT('',(0.,0.,0.));
#332=CARTESIAN_POINT('Origin',(0.,0.82,0.));
#333=CARTESIAN_POINT('',(0.275,0.82,0.));
#334=CARTESIAN_POINT('Origin',(0.,0.82,0.));
#335=CARTESIAN_POINT('Origin',(1.38777878078142E-19,-0.00249999999999995,
-2.73571661585259E-17));
#336=CARTESIAN_POINT('',(2.4,-0.00500000000000003,1.17128529097954E-15));
#337=CARTESIAN_POINT('Origin',(0.,-0.00499999999999989,-2.77555756156289E-17));
#338=CARTESIAN_POINT('',(2.4,-1.33573707650214E-16,1.17208210989374E-15));
#339=CARTESIAN_POINT('Origin',(2.77555756156292E-19,1.58293517182884E-16,
-2.69587567014229E-17));
#340=CARTESIAN_POINT('Origin',(2.33247727084868,-0.00500000000000002,1.13755091111435E-15));
#341=CARTESIAN_POINT('Origin',(0.,0.95,0.));
#342=CARTESIAN_POINT('',(1.90173729605452,1.,0.));
#343=CARTESIAN_POINT('Origin',(0.,1.,0.));
#344=CARTESIAN_POINT('',(1.91883830322081,0.996984631039295,-4.6997983722414E-16));
#345=CARTESIAN_POINT('Origin',(0.,0.996984631039295,-2.3498991861207E-16));
#346=CARTESIAN_POINT('Origin',(0.,0.6425,0.));
#347=CARTESIAN_POINT('',(3.82236161146605,0.304158806606096,1.97215226305253E-31));
#348=CARTESIAN_POINT('Origin',(0.,0.304158806606096,-4.68104291266562E-16));
#349=CARTESIAN_POINT('Origin',(1.20777682254497,1.,0.));
#350=CARTESIAN_POINT('',(0.505,1.,0.));
#351=CARTESIAN_POINT('Origin',(0.,1.,0.));
#352=CARTESIAN_POINT('Origin',(0.,0.08,0.));
#353=CARTESIAN_POINT('',(3.39834730544352,0.0487415097208574,4.93038065763132E-32));
#354=CARTESIAN_POINT('Origin',(0.,0.0487415097208574,-4.16177515000244E-16));
#355=CARTESIAN_POINT('',(3.32470691716732,0.,-8.14318336842406E-16));
#356=CARTESIAN_POINT('Origin',(0.,0.,0.));
#357=CARTESIAN_POINT('Origin',(0.,0.043443867709357,0.));
#358=CARTESIAN_POINT('',(3.41453941758571,0.0868877354187141,0.));
#359=CARTESIAN_POINT('Origin',(0.,0.0868877354187141,0.));
#360=CARTESIAN_POINT('Origin',(2.84282888103149,5.97673166955493E-19,0.));
#361=CARTESIAN_POINT('Origin',(0.,0.08,0.));
#362=CARTESIAN_POINT('',(3.72529308283268,0.,0.));
#363=CARTESIAN_POINT('Origin',(0.,0.,0.));
#364=CARTESIAN_POINT('',(3.65165269455648,0.048741509720858,-8.9439695679728E-16));
#365=CARTESIAN_POINT('Origin',(0.,0.048741509720858,-4.4719847839864E-16));
#366=CARTESIAN_POINT('Origin',(3.77367111896851,-5.70181012998482E-18,0.));
#367=CARTESIAN_POINT('',(3.875,0.,0.));
#368=CARTESIAN_POINT('Origin',(0.,0.,0.));
#369=CARTESIAN_POINT('Origin',(0.,0.0434438677093565,0.));
#370=CARTESIAN_POINT('',(3.63546058241429,0.0868877354187129,0.));
#371=CARTESIAN_POINT('Origin',(0.,0.086887735418713,0.));
#372=CARTESIAN_POINT('Origin',(0.,0.228983396943223,0.));
#373=CARTESIAN_POINT('',(3.875,0.228983396943223,-9.49101269339199E-16));
#374=CARTESIAN_POINT('Origin',(0.,0.228983396943223,0.));
#375=CARTESIAN_POINT('Origin',(0.,0.1425,0.));
#376=CARTESIAN_POINT('Origin',(0.,0.87,0.));
#377=CARTESIAN_POINT('',(0.275,0.92,0.));
#378=CARTESIAN_POINT('Origin',(0.,0.92,0.));
#379=CARTESIAN_POINT('Origin',(0.39,0.92,0.));
#380=CARTESIAN_POINT('',(0.505,0.92,0.));
#381=CARTESIAN_POINT('Origin',(0.,0.92,0.));
#382=CARTESIAN_POINT('Origin',(0.,0.96,0.));
#383=CARTESIAN_POINT('Origin',(0.,0.04,0.));
#384=UNCERTAINTY_MEASURE_WITH_UNIT(LENGTH_MEASURE(0.001),#388,
'DISTANCE_ACCURACY_VALUE',
'Maximum model space distance between geometric entities at asserted c
onnectivities');
#385=UNCERTAINTY_MEASURE_WITH_UNIT(LENGTH_MEASURE(1.E-6),#389,
'DISTANCE_ACCURACY_VALUE',
'Maximum model space distance between geometric entities at asserted c
onnectivities');
#386=(
GEOMETRIC_REPRESENTATION_CONTEXT(3)
GLOBAL_UNCERTAINTY_ASSIGNED_CONTEXT((#384))
GLOBAL_UNIT_ASSIGNED_CONTEXT((#388,#392,#390))
REPRESENTATION_CONTEXT('','3D')
);
#387=(
GEOMETRIC_REPRESENTATION_CONTEXT(3)
GLOBAL_UNCERTAINTY_ASSIGNED_CONTEXT((#385))
GLOBAL_UNIT_ASSIGNED_CONTEXT((#389,#392,#390))
REPRESENTATION_CONTEXT('','3D')
);
#388=(
LENGTH_UNIT()
NAMED_UNIT(*)
SI_UNIT(.CENTI.,.METRE.)
);
#389=(
LENGTH_UNIT()
NAMED_UNIT(*)
SI_UNIT(.MILLI.,.METRE.)
);
#390=(
NAMED_UNIT(*)
SI_UNIT($,.STERADIAN.)
SOLID_ANGLE_UNIT()
);
#391=DIMENSIONAL_EXPONENTS(0.,0.,0.,0.,0.,0.,0.);
#392=(
CONVERSION_BASED_UNIT('degree',#394)
NAMED_UNIT(#391)
PLANE_ANGLE_UNIT()
);
#393=(
NAMED_UNIT(*)
PLANE_ANGLE_UNIT()
SI_UNIT($,.RADIAN.)
);
#394=PLANE_ANGLE_MEASURE_WITH_UNIT(PLANE_ANGLE_MEASURE(0.01745329252),#393);
#395=SHAPE_DEFINITION_REPRESENTATION(#396,#397);
#396=PRODUCT_DEFINITION_SHAPE('',$,#399);
#397=SHAPE_REPRESENTATION('',(#223),#386);
#398=PRODUCT_DEFINITION_CONTEXT('part definition',#403,'design');
#399=PRODUCT_DEFINITION('31326W','31326W',#400,#398);
#400=PRODUCT_DEFINITION_FORMATION('',$,#405);
#401=PRODUCT_RELATED_PRODUCT_CATEGORY('31326W','31326W',(#405));
#402=APPLICATION_PROTOCOL_DEFINITION('international standard',
'automotive_design',2009,#403);
#403=APPLICATION_CONTEXT(
'Core Data for Automotive Mechanical Design Process');
#404=PRODUCT_CONTEXT('part definition',#403,'mechanical');
#405=PRODUCT('31326W','31326W',$,(#404));
#406=PRESENTATION_STYLE_ASSIGNMENT((#409));
#407=PRESENTATION_STYLE_ASSIGNMENT((#410));
#408=PRESENTATION_STYLE_ASSIGNMENT((#411));
#409=SURFACE_STYLE_USAGE(.BOTH.,#412);
#410=SURFACE_STYLE_USAGE(.BOTH.,#413);
#411=SURFACE_STYLE_USAGE(.BOTH.,#414);
#412=SURFACE_SIDE_STYLE($,(#415));
#413=SURFACE_SIDE_STYLE($,(#416));
#414=SURFACE_SIDE_STYLE($,(#417));
#415=SURFACE_STYLE_FILL_AREA(#418);
#416=SURFACE_STYLE_FILL_AREA(#419);
#417=SURFACE_STYLE_FILL_AREA(#420);
#418=FILL_AREA_STYLE($,(#421));
#419=FILL_AREA_STYLE($,(#422));
#420=FILL_AREA_STYLE($,(#423));
#421=FILL_AREA_STYLE_COLOUR($,#424);
#422=FILL_AREA_STYLE_COLOUR($,#425);
#423=FILL_AREA_STYLE_COLOUR($,#426);
#424=COLOUR_RGB('',0.749019607843137,0.749019607843137,0.749019607843137);
#425=COLOUR_RGB('',0.549019607843137,0.549019607843137,0.592156862745098);
#426=COLOUR_RGB('',0.549019607843137,0.549019607843137,0.592156862745098);
ENDSEC;
END-ISO-10303-21;
