ISO-10303-21;
HEADER;
/* Generated by software containing ST-Developer
 * from STEP Tools, Inc. (www.steptools.com) 
 */

FILE_DESCRIPTION(
/* description */ (''),
/* implementation_level */ '2;1');

FILE_NAME(
/* name */ 
'J:\\AM_Zeichnung\\Inventor\\PROJEKT_STAMMORDNER\\Importierte Komponen
ten\\31333W\\31396W.stp',
/* time_stamp */ '2018-02-06T10:20:20+01:00',
/* author */ ('acgl'),
/* organization */ (''),
/* preprocessor_version */ 'ST-DEVELOPER v15.6',
/* originating_system */ 'Autodesk Inventor 2015',
/* authorisation */ '');

FILE_SCHEMA (('AUTOMOTIVE_DESIGN { 1 0 10303 214 3 1 1 }'));
ENDSEC;

DATA;
#10=MECHANICAL_DESIGN_GEOMETRIC_PRESENTATION_REPRESENTATION('',(#211,#215,
#218,#217,#224,#220,#212,#216,#221,#213,#219,#214,#228,#222,#226,#223,#227,
#225),#422);
#11=SHAPE_REPRESENTATION_RELATIONSHIP('SRR','None',#432,#12);
#12=ADVANCED_BREP_SHAPE_REPRESENTATION($,(#13),#421);
#13=MANIFOLD_SOLID_BREP('Volumenk\X\F6rper1',#246);
#14=CONICAL_SURFACE('',#254,6.3,44.9999999999999);
#15=CONICAL_SURFACE('',#265,6.3,44.9999999999998);
#16=FACE_BOUND('',#67,.T.);
#17=FACE_BOUND('',#70,.T.);
#18=FACE_BOUND('',#72,.T.);
#19=FACE_BOUND('',#74,.T.);
#20=FACE_BOUND('',#75,.T.);
#21=FACE_BOUND('',#76,.T.);
#22=FACE_BOUND('',#77,.T.);
#23=FACE_BOUND('',#78,.T.);
#24=FACE_BOUND('',#80,.T.);
#25=FACE_BOUND('',#82,.T.);
#26=FACE_BOUND('',#83,.T.);
#27=FACE_BOUND('',#84,.T.);
#28=FACE_BOUND('',#85,.T.);
#29=FACE_BOUND('',#86,.T.);
#30=FACE_BOUND('',#88,.T.);
#31=FACE_BOUND('',#90,.T.);
#32=FACE_BOUND('',#92,.T.);
#33=FACE_BOUND('',#94,.T.);
#34=FACE_BOUND('',#96,.T.);
#35=FACE_BOUND('',#98,.T.);
#36=FACE_BOUND('',#100,.T.);
#37=FACE_BOUND('',#102,.T.);
#38=FACE_BOUND('',#104,.T.);
#39=CYLINDRICAL_SURFACE('',#250,1.8);
#40=CYLINDRICAL_SURFACE('',#257,6.35);
#41=CYLINDRICAL_SURFACE('',#273,0.8);
#42=CYLINDRICAL_SURFACE('',#274,0.8);
#43=CYLINDRICAL_SURFACE('',#275,0.8);
#44=CYLINDRICAL_SURFACE('',#276,0.8);
#45=CYLINDRICAL_SURFACE('',#277,0.275);
#46=CYLINDRICAL_SURFACE('',#281,0.505);
#47=CYLINDRICAL_SURFACE('',#282,3.65);
#48=FACE_OUTER_BOUND('',#65,.T.);
#49=FACE_OUTER_BOUND('',#66,.T.);
#50=FACE_OUTER_BOUND('',#68,.T.);
#51=FACE_OUTER_BOUND('',#69,.T.);
#52=FACE_OUTER_BOUND('',#71,.T.);
#53=FACE_OUTER_BOUND('',#73,.T.);
#54=FACE_OUTER_BOUND('',#79,.T.);
#55=FACE_OUTER_BOUND('',#81,.T.);
#56=FACE_OUTER_BOUND('',#87,.T.);
#57=FACE_OUTER_BOUND('',#89,.T.);
#58=FACE_OUTER_BOUND('',#91,.T.);
#59=FACE_OUTER_BOUND('',#93,.T.);
#60=FACE_OUTER_BOUND('',#95,.T.);
#61=FACE_OUTER_BOUND('',#97,.T.);
#62=FACE_OUTER_BOUND('',#99,.T.);
#63=FACE_OUTER_BOUND('',#101,.T.);
#64=FACE_OUTER_BOUND('',#103,.T.);
#65=EDGE_LOOP('',(#165));
#66=EDGE_LOOP('',(#166));
#67=EDGE_LOOP('',(#167));
#68=EDGE_LOOP('',(#168));
#69=EDGE_LOOP('',(#169));
#70=EDGE_LOOP('',(#170));
#71=EDGE_LOOP('',(#171));
#72=EDGE_LOOP('',(#172));
#73=EDGE_LOOP('',(#173));
#74=EDGE_LOOP('',(#174));
#75=EDGE_LOOP('',(#175));
#76=EDGE_LOOP('',(#176));
#77=EDGE_LOOP('',(#177));
#78=EDGE_LOOP('',(#178));
#79=EDGE_LOOP('',(#179));
#80=EDGE_LOOP('',(#180));
#81=EDGE_LOOP('',(#181));
#82=EDGE_LOOP('',(#182));
#83=EDGE_LOOP('',(#183));
#84=EDGE_LOOP('',(#184));
#85=EDGE_LOOP('',(#185));
#86=EDGE_LOOP('',(#186));
#87=EDGE_LOOP('',(#187));
#88=EDGE_LOOP('',(#188));
#89=EDGE_LOOP('',(#189));
#90=EDGE_LOOP('',(#190));
#91=EDGE_LOOP('',(#191));
#92=EDGE_LOOP('',(#192));
#93=EDGE_LOOP('',(#193));
#94=EDGE_LOOP('',(#194));
#95=EDGE_LOOP('',(#195));
#96=EDGE_LOOP('',(#196));
#97=EDGE_LOOP('',(#197));
#98=EDGE_LOOP('',(#198));
#99=EDGE_LOOP('',(#199));
#100=EDGE_LOOP('',(#200));
#101=EDGE_LOOP('',(#201));
#102=EDGE_LOOP('',(#202));
#103=EDGE_LOOP('',(#203));
#104=EDGE_LOOP('',(#204));
#105=CIRCLE('',#249,0.275);
#106=CIRCLE('',#251,1.8);
#107=CIRCLE('',#252,1.8);
#108=CIRCLE('',#255,6.25);
#109=CIRCLE('',#256,6.35);
#110=CIRCLE('',#258,6.35);
#111=CIRCLE('',#260,0.505);
#112=CIRCLE('',#261,0.8);
#113=CIRCLE('',#262,0.8);
#114=CIRCLE('',#263,0.8);
#115=CIRCLE('',#264,0.8);
#116=CIRCLE('',#266,6.25);
#117=CIRCLE('',#268,3.65);
#118=CIRCLE('',#269,0.8);
#119=CIRCLE('',#270,0.8);
#120=CIRCLE('',#271,0.8);
#121=CIRCLE('',#272,0.8);
#122=CIRCLE('',#278,0.275);
#123=CIRCLE('',#280,0.505);
#124=CIRCLE('',#283,3.65);
#125=VERTEX_POINT('',#363);
#126=VERTEX_POINT('',#366);
#127=VERTEX_POINT('',#368);
#128=VERTEX_POINT('',#372);
#129=VERTEX_POINT('',#374);
#130=VERTEX_POINT('',#377);
#131=VERTEX_POINT('',#380);
#132=VERTEX_POINT('',#382);
#133=VERTEX_POINT('',#384);
#134=VERTEX_POINT('',#386);
#135=VERTEX_POINT('',#388);
#136=VERTEX_POINT('',#391);
#137=VERTEX_POINT('',#394);
#138=VERTEX_POINT('',#396);
#139=VERTEX_POINT('',#398);
#140=VERTEX_POINT('',#400);
#141=VERTEX_POINT('',#402);
#142=VERTEX_POINT('',#409);
#143=VERTEX_POINT('',#412);
#144=VERTEX_POINT('',#416);
#145=EDGE_CURVE('',#125,#125,#105,.T.);
#146=EDGE_CURVE('',#126,#126,#106,.T.);
#147=EDGE_CURVE('',#127,#127,#107,.T.);
#148=EDGE_CURVE('',#128,#128,#108,.T.);
#149=EDGE_CURVE('',#129,#129,#109,.T.);
#150=EDGE_CURVE('',#130,#130,#110,.T.);
#151=EDGE_CURVE('',#131,#131,#111,.T.);
#152=EDGE_CURVE('',#132,#132,#112,.T.);
#153=EDGE_CURVE('',#133,#133,#113,.T.);
#154=EDGE_CURVE('',#134,#134,#114,.T.);
#155=EDGE_CURVE('',#135,#135,#115,.T.);
#156=EDGE_CURVE('',#136,#136,#116,.T.);
#157=EDGE_CURVE('',#137,#137,#117,.T.);
#158=EDGE_CURVE('',#138,#138,#118,.T.);
#159=EDGE_CURVE('',#139,#139,#119,.T.);
#160=EDGE_CURVE('',#140,#140,#120,.T.);
#161=EDGE_CURVE('',#141,#141,#121,.T.);
#162=EDGE_CURVE('',#142,#142,#122,.T.);
#163=EDGE_CURVE('',#143,#143,#123,.T.);
#164=EDGE_CURVE('',#144,#144,#124,.T.);
#165=ORIENTED_EDGE('',*,*,#145,.F.);
#166=ORIENTED_EDGE('',*,*,#146,.F.);
#167=ORIENTED_EDGE('',*,*,#147,.F.);
#168=ORIENTED_EDGE('',*,*,#146,.T.);
#169=ORIENTED_EDGE('',*,*,#148,.T.);
#170=ORIENTED_EDGE('',*,*,#149,.T.);
#171=ORIENTED_EDGE('',*,*,#150,.F.);
#172=ORIENTED_EDGE('',*,*,#149,.F.);
#173=ORIENTED_EDGE('',*,*,#148,.F.);
#174=ORIENTED_EDGE('',*,*,#151,.T.);
#175=ORIENTED_EDGE('',*,*,#152,.T.);
#176=ORIENTED_EDGE('',*,*,#153,.T.);
#177=ORIENTED_EDGE('',*,*,#154,.T.);
#178=ORIENTED_EDGE('',*,*,#155,.T.);
#179=ORIENTED_EDGE('',*,*,#150,.T.);
#180=ORIENTED_EDGE('',*,*,#156,.T.);
#181=ORIENTED_EDGE('',*,*,#156,.F.);
#182=ORIENTED_EDGE('',*,*,#157,.F.);
#183=ORIENTED_EDGE('',*,*,#158,.T.);
#184=ORIENTED_EDGE('',*,*,#159,.T.);
#185=ORIENTED_EDGE('',*,*,#160,.T.);
#186=ORIENTED_EDGE('',*,*,#161,.T.);
#187=ORIENTED_EDGE('',*,*,#161,.F.);
#188=ORIENTED_EDGE('',*,*,#155,.F.);
#189=ORIENTED_EDGE('',*,*,#160,.F.);
#190=ORIENTED_EDGE('',*,*,#154,.F.);
#191=ORIENTED_EDGE('',*,*,#159,.F.);
#192=ORIENTED_EDGE('',*,*,#153,.F.);
#193=ORIENTED_EDGE('',*,*,#158,.F.);
#194=ORIENTED_EDGE('',*,*,#152,.F.);
#195=ORIENTED_EDGE('',*,*,#162,.F.);
#196=ORIENTED_EDGE('',*,*,#145,.T.);
#197=ORIENTED_EDGE('',*,*,#163,.F.);
#198=ORIENTED_EDGE('',*,*,#162,.T.);
#199=ORIENTED_EDGE('',*,*,#151,.F.);
#200=ORIENTED_EDGE('',*,*,#163,.T.);
#201=ORIENTED_EDGE('',*,*,#164,.F.);
#202=ORIENTED_EDGE('',*,*,#157,.T.);
#203=ORIENTED_EDGE('',*,*,#164,.T.);
#204=ORIENTED_EDGE('',*,*,#147,.T.);
#205=PLANE('',#248);
#206=PLANE('',#253);
#207=PLANE('',#259);
#208=PLANE('',#267);
#209=PLANE('',#279);
#210=PLANE('',#284);
#211=STYLED_ITEM('',(#442),#229);
#212=STYLED_ITEM('',(#443),#230);
#213=STYLED_ITEM('',(#443),#231);
#214=STYLED_ITEM('',(#442),#232);
#215=STYLED_ITEM('',(#442),#233);
#216=STYLED_ITEM('',(#442),#234);
#217=STYLED_ITEM('',(#442),#235);
#218=STYLED_ITEM('',(#442),#236);
#219=STYLED_ITEM('',(#442),#237);
#220=STYLED_ITEM('',(#442),#238);
#221=STYLED_ITEM('',(#442),#239);
#222=STYLED_ITEM('',(#442),#240);
#223=STYLED_ITEM('',(#442),#241);
#224=STYLED_ITEM('',(#442),#242);
#225=STYLED_ITEM('',(#442),#243);
#226=STYLED_ITEM('',(#442),#244);
#227=STYLED_ITEM('',(#442),#245);
#228=STYLED_ITEM('',(#441),#13);
#229=ADVANCED_FACE('',(#48),#205,.F.);
#230=ADVANCED_FACE('',(#49,#16),#39,.T.);
#231=ADVANCED_FACE('',(#50),#206,.T.);
#232=ADVANCED_FACE('',(#51,#17),#14,.T.);
#233=ADVANCED_FACE('',(#52,#18),#40,.T.);
#234=ADVANCED_FACE('',(#53,#19,#20,#21,#22,#23),#207,.T.);
#235=ADVANCED_FACE('',(#54,#24),#15,.T.);
#236=ADVANCED_FACE('',(#55,#25,#26,#27,#28,#29),#208,.T.);
#237=ADVANCED_FACE('',(#56,#30),#41,.F.);
#238=ADVANCED_FACE('',(#57,#31),#42,.F.);
#239=ADVANCED_FACE('',(#58,#32),#43,.F.);
#240=ADVANCED_FACE('',(#59,#33),#44,.F.);
#241=ADVANCED_FACE('',(#60,#34),#45,.F.);
#242=ADVANCED_FACE('',(#61,#35),#209,.T.);
#243=ADVANCED_FACE('',(#62,#36),#46,.F.);
#244=ADVANCED_FACE('',(#63,#37),#47,.T.);
#245=ADVANCED_FACE('',(#64,#38),#210,.T.);
#246=CLOSED_SHELL('',(#229,#230,#231,#232,#233,#234,#235,#236,#237,#238,
#239,#240,#241,#242,#243,#244,#245));
#247=AXIS2_PLACEMENT_3D('placement',#361,#285,#286);
#248=AXIS2_PLACEMENT_3D('',#362,#287,#288);
#249=AXIS2_PLACEMENT_3D('',#364,#289,#290);
#250=AXIS2_PLACEMENT_3D('',#365,#291,#292);
#251=AXIS2_PLACEMENT_3D('',#367,#293,#294);
#252=AXIS2_PLACEMENT_3D('',#369,#295,#296);
#253=AXIS2_PLACEMENT_3D('',#370,#297,#298);
#254=AXIS2_PLACEMENT_3D('',#371,#299,#300);
#255=AXIS2_PLACEMENT_3D('',#373,#301,#302);
#256=AXIS2_PLACEMENT_3D('',#375,#303,#304);
#257=AXIS2_PLACEMENT_3D('',#376,#305,#306);
#258=AXIS2_PLACEMENT_3D('',#378,#307,#308);
#259=AXIS2_PLACEMENT_3D('',#379,#309,#310);
#260=AXIS2_PLACEMENT_3D('',#381,#311,#312);
#261=AXIS2_PLACEMENT_3D('',#383,#313,#314);
#262=AXIS2_PLACEMENT_3D('',#385,#315,#316);
#263=AXIS2_PLACEMENT_3D('',#387,#317,#318);
#264=AXIS2_PLACEMENT_3D('',#389,#319,#320);
#265=AXIS2_PLACEMENT_3D('',#390,#321,#322);
#266=AXIS2_PLACEMENT_3D('',#392,#323,#324);
#267=AXIS2_PLACEMENT_3D('',#393,#325,#326);
#268=AXIS2_PLACEMENT_3D('',#395,#327,#328);
#269=AXIS2_PLACEMENT_3D('',#397,#329,#330);
#270=AXIS2_PLACEMENT_3D('',#399,#331,#332);
#271=AXIS2_PLACEMENT_3D('',#401,#333,#334);
#272=AXIS2_PLACEMENT_3D('',#403,#335,#336);
#273=AXIS2_PLACEMENT_3D('',#404,#337,#338);
#274=AXIS2_PLACEMENT_3D('',#405,#339,#340);
#275=AXIS2_PLACEMENT_3D('',#406,#341,#342);
#276=AXIS2_PLACEMENT_3D('',#407,#343,#344);
#277=AXIS2_PLACEMENT_3D('',#408,#345,#346);
#278=AXIS2_PLACEMENT_3D('',#410,#347,#348);
#279=AXIS2_PLACEMENT_3D('',#411,#349,#350);
#280=AXIS2_PLACEMENT_3D('',#413,#351,#352);
#281=AXIS2_PLACEMENT_3D('',#414,#353,#354);
#282=AXIS2_PLACEMENT_3D('',#415,#355,#356);
#283=AXIS2_PLACEMENT_3D('',#417,#357,#358);
#284=AXIS2_PLACEMENT_3D('',#418,#359,#360);
#285=DIRECTION('axis',(0.,0.,1.));
#286=DIRECTION('refdir',(1.,0.,0.));
#287=DIRECTION('center_axis',(0.,-1.,0.));
#288=DIRECTION('ref_axis',(0.,0.,-1.));
#289=DIRECTION('center_axis',(0.,-1.,0.));
#290=DIRECTION('ref_axis',(1.,0.,0.));
#291=DIRECTION('center_axis',(0.,-1.,0.));
#292=DIRECTION('ref_axis',(1.,-5.52937517616603E-17,0.));
#293=DIRECTION('center_axis',(0.,-1.,0.));
#294=DIRECTION('ref_axis',(1.,-5.52937517616603E-17,0.));
#295=DIRECTION('center_axis',(0.,1.,0.));
#296=DIRECTION('ref_axis',(1.,-5.52937517616603E-17,0.));
#297=DIRECTION('center_axis',(0.,-1.,0.));
#298=DIRECTION('ref_axis',(0.,0.,-1.));
#299=DIRECTION('center_axis',(0.,-1.,0.));
#300=DIRECTION('ref_axis',(-1.,0.,0.));
#301=DIRECTION('center_axis',(0.,-1.,0.));
#302=DIRECTION('ref_axis',(-1.,0.,0.));
#303=DIRECTION('center_axis',(0.,1.,0.));
#304=DIRECTION('ref_axis',(-1.,0.,0.));
#305=DIRECTION('center_axis',(0.,-1.,0.));
#306=DIRECTION('ref_axis',(1.,0.,0.));
#307=DIRECTION('center_axis',(0.,-1.,0.));
#308=DIRECTION('ref_axis',(-1.,0.,0.));
#309=DIRECTION('center_axis',(0.,1.,0.));
#310=DIRECTION('ref_axis',(0.,0.,1.));
#311=DIRECTION('center_axis',(0.,-1.,0.));
#312=DIRECTION('ref_axis',(1.,0.,0.));
#313=DIRECTION('center_axis',(0.,-1.,0.));
#314=DIRECTION('ref_axis',(-1.,0.,0.));
#315=DIRECTION('center_axis',(0.,-1.,0.));
#316=DIRECTION('ref_axis',(-1.,0.,0.));
#317=DIRECTION('center_axis',(0.,-1.,0.));
#318=DIRECTION('ref_axis',(-1.,0.,0.));
#319=DIRECTION('center_axis',(0.,-1.,0.));
#320=DIRECTION('ref_axis',(-1.,0.,0.));
#321=DIRECTION('center_axis',(0.,1.,0.));
#322=DIRECTION('ref_axis',(-1.,0.,0.));
#323=DIRECTION('center_axis',(0.,1.,0.));
#324=DIRECTION('ref_axis',(-1.,0.,0.));
#325=DIRECTION('center_axis',(0.,-1.,0.));
#326=DIRECTION('ref_axis',(0.,0.,-1.));
#327=DIRECTION('center_axis',(0.,-1.,0.));
#328=DIRECTION('ref_axis',(1.,0.,0.));
#329=DIRECTION('center_axis',(0.,1.,0.));
#330=DIRECTION('ref_axis',(-1.,0.,0.));
#331=DIRECTION('center_axis',(0.,1.,0.));
#332=DIRECTION('ref_axis',(-1.,0.,0.));
#333=DIRECTION('center_axis',(0.,1.,0.));
#334=DIRECTION('ref_axis',(-1.,0.,0.));
#335=DIRECTION('center_axis',(0.,1.,0.));
#336=DIRECTION('ref_axis',(-1.,0.,0.));
#337=DIRECTION('center_axis',(0.,-1.,0.));
#338=DIRECTION('ref_axis',(-1.,0.,0.));
#339=DIRECTION('center_axis',(0.,-1.,0.));
#340=DIRECTION('ref_axis',(-1.,0.,0.));
#341=DIRECTION('center_axis',(0.,-1.,0.));
#342=DIRECTION('ref_axis',(-1.,0.,0.));
#343=DIRECTION('center_axis',(0.,-1.,0.));
#344=DIRECTION('ref_axis',(-1.,0.,0.));
#345=DIRECTION('center_axis',(0.,-1.,0.));
#346=DIRECTION('ref_axis',(1.,0.,0.));
#347=DIRECTION('center_axis',(0.,-1.,0.));
#348=DIRECTION('ref_axis',(1.,0.,0.));
#349=DIRECTION('center_axis',(0.,1.,0.));
#350=DIRECTION('ref_axis',(0.,0.,1.));
#351=DIRECTION('center_axis',(0.,-1.,0.));
#352=DIRECTION('ref_axis',(1.,0.,0.));
#353=DIRECTION('center_axis',(0.,-1.,0.));
#354=DIRECTION('ref_axis',(1.,0.,0.));
#355=DIRECTION('center_axis',(0.,-1.,0.));
#356=DIRECTION('ref_axis',(1.,0.,0.));
#357=DIRECTION('center_axis',(0.,-1.,0.));
#358=DIRECTION('ref_axis',(1.,0.,0.));
#359=DIRECTION('center_axis',(0.,-1.,0.));
#360=DIRECTION('ref_axis',(0.,0.,-1.));
#361=CARTESIAN_POINT('',(0.,0.,0.));
#362=CARTESIAN_POINT('Origin',(0.,1.57,0.));
#363=CARTESIAN_POINT('',(0.275,1.57,0.));
#364=CARTESIAN_POINT('Origin',(0.,1.57,0.));
#365=CARTESIAN_POINT('Origin',(1.52857106846021E-30,-0.00249999999997247,
0.));
#366=CARTESIAN_POINT('',(1.8,-0.00499999999997247,0.));
#367=CARTESIAN_POINT('Origin',(1.52857106846021E-30,-0.00499999999997247,
0.));
#368=CARTESIAN_POINT('',(1.8,2.75300615637519E-14,0.));
#369=CARTESIAN_POINT('Origin',(1.52857106846021E-30,1.38977371277882E-14,
0.));
#370=CARTESIAN_POINT('Origin',(1.67198626735673,-0.00499999999997247,0.));
#371=CARTESIAN_POINT('Origin',(0.,1.7,0.));
#372=CARTESIAN_POINT('',(6.25,1.75,7.65378971138986E-16));
#373=CARTESIAN_POINT('Origin',(0.,1.75,0.));
#374=CARTESIAN_POINT('',(6.35,1.65,-7.7762503467721E-16));
#375=CARTESIAN_POINT('Origin',(0.,1.65,0.));
#376=CARTESIAN_POINT('Origin',(0.,0.955000000000001,0.));
#377=CARTESIAN_POINT('',(6.35,0.260000000000001,7.7762503467721E-16));
#378=CARTESIAN_POINT('Origin',(0.,0.260000000000001,0.));
#379=CARTESIAN_POINT('Origin',(3.4275,1.75,0.));
#380=CARTESIAN_POINT('',(0.505,1.75,0.));
#381=CARTESIAN_POINT('Origin',(0.,1.75,0.));
#382=CARTESIAN_POINT('',(0.8,1.75,-4.925));
#383=CARTESIAN_POINT('Origin',(-2.09541177949331E-31,1.75,-4.925));
#384=CARTESIAN_POINT('',(-4.125,1.75,-3.99541018221824E-16));
#385=CARTESIAN_POINT('Origin',(-4.925,1.75,-3.01569274290036E-16));
#386=CARTESIAN_POINT('',(0.799999999999999,1.75,4.925));
#387=CARTESIAN_POINT('Origin',(-6.03138548580071E-16,1.75,4.925));
#388=CARTESIAN_POINT('',(5.725,1.75,8.06736078938319E-16));
#389=CARTESIAN_POINT('Origin',(4.925,1.75,9.04707822870107E-16));
#390=CARTESIAN_POINT('Origin',(0.,0.210000000000001,0.));
#391=CARTESIAN_POINT('',(6.25,0.160000000000001,-7.65378971138986E-16));
#392=CARTESIAN_POINT('Origin',(0.,0.160000000000001,0.));
#393=CARTESIAN_POINT('Origin',(5.,0.160000000000001,0.));
#394=CARTESIAN_POINT('',(3.65,0.16,0.));
#395=CARTESIAN_POINT('Origin',(0.,0.16,0.));
#396=CARTESIAN_POINT('',(0.8,0.160000000000001,-4.925));
#397=CARTESIAN_POINT('Origin',(-2.09541177949331E-31,0.160000000000001,
-4.925));
#398=CARTESIAN_POINT('',(-4.125,0.160000000000001,-3.99537782595826E-16));
#399=CARTESIAN_POINT('Origin',(-4.925,0.160000000000001,-3.01569274290036E-16));
#400=CARTESIAN_POINT('',(0.799999999999999,0.160000000000001,4.925));
#401=CARTESIAN_POINT('Origin',(-6.03138548580071E-16,0.160000000000001,
4.925));
#402=CARTESIAN_POINT('',(5.725,0.160000000000001,8.06739314564317E-16));
#403=CARTESIAN_POINT('Origin',(4.925,0.160000000000001,9.04707822870107E-16));
#404=CARTESIAN_POINT('Origin',(4.925,1.75,9.04707822870107E-16));
#405=CARTESIAN_POINT('Origin',(-6.03138548580071E-16,1.75,4.925));
#406=CARTESIAN_POINT('Origin',(-4.925,1.75,-3.01569274290036E-16));
#407=CARTESIAN_POINT('Origin',(-2.09541177949331E-31,1.75,-4.925));
#408=CARTESIAN_POINT('Origin',(0.,1.62,0.));
#409=CARTESIAN_POINT('',(0.275,1.67,0.));
#410=CARTESIAN_POINT('Origin',(0.,1.67,0.));
#411=CARTESIAN_POINT('Origin',(0.39,1.67,0.));
#412=CARTESIAN_POINT('',(0.505,1.67,0.));
#413=CARTESIAN_POINT('Origin',(0.,1.67,0.));
#414=CARTESIAN_POINT('Origin',(0.,1.71,0.));
#415=CARTESIAN_POINT('Origin',(0.,0.0800000000000003,0.));
#416=CARTESIAN_POINT('',(3.65,2.62197080433647E-16,0.));
#417=CARTESIAN_POINT('Origin',(0.,2.22044604925031E-16,0.));
#418=CARTESIAN_POINT('Origin',(2.66,1.38978640455688E-14,0.));
#419=UNCERTAINTY_MEASURE_WITH_UNIT(LENGTH_MEASURE(0.001),#423,
'DISTANCE_ACCURACY_VALUE',
'Maximum model space distance between geometric entities at asserted c
onnectivities');
#420=UNCERTAINTY_MEASURE_WITH_UNIT(LENGTH_MEASURE(1.E-6),#424,
'DISTANCE_ACCURACY_VALUE',
'Maximum model space distance between geometric entities at asserted c
onnectivities');
#421=(
GEOMETRIC_REPRESENTATION_CONTEXT(3)
GLOBAL_UNCERTAINTY_ASSIGNED_CONTEXT((#419))
GLOBAL_UNIT_ASSIGNED_CONTEXT((#423,#427,#425))
REPRESENTATION_CONTEXT('','3D')
);
#422=(
GEOMETRIC_REPRESENTATION_CONTEXT(3)
GLOBAL_UNCERTAINTY_ASSIGNED_CONTEXT((#420))
GLOBAL_UNIT_ASSIGNED_CONTEXT((#424,#427,#425))
REPRESENTATION_CONTEXT('','3D')
);
#423=(
LENGTH_UNIT()
NAMED_UNIT(*)
SI_UNIT(.CENTI.,.METRE.)
);
#424=(
LENGTH_UNIT()
NAMED_UNIT(*)
SI_UNIT(.MILLI.,.METRE.)
);
#425=(
NAMED_UNIT(*)
SI_UNIT($,.STERADIAN.)
SOLID_ANGLE_UNIT()
);
#426=DIMENSIONAL_EXPONENTS(0.,0.,0.,0.,0.,0.,0.);
#427=(
CONVERSION_BASED_UNIT('degree',#429)
NAMED_UNIT(#426)
PLANE_ANGLE_UNIT()
);
#428=(
NAMED_UNIT(*)
PLANE_ANGLE_UNIT()
SI_UNIT($,.RADIAN.)
);
#429=PLANE_ANGLE_MEASURE_WITH_UNIT(PLANE_ANGLE_MEASURE(0.01745329252),#428);
#430=SHAPE_DEFINITION_REPRESENTATION(#431,#432);
#431=PRODUCT_DEFINITION_SHAPE('',$,#434);
#432=SHAPE_REPRESENTATION('',(#247),#421);
#433=PRODUCT_DEFINITION_CONTEXT('part definition',#438,'design');
#434=PRODUCT_DEFINITION('31396W','31396W',#435,#433);
#435=PRODUCT_DEFINITION_FORMATION('',$,#440);
#436=PRODUCT_RELATED_PRODUCT_CATEGORY('31396W','31396W',(#440));
#437=APPLICATION_PROTOCOL_DEFINITION('international standard',
'automotive_design',2009,#438);
#438=APPLICATION_CONTEXT(
'Core Data for Automotive Mechanical Design Process');
#439=PRODUCT_CONTEXT('part definition',#438,'mechanical');
#440=PRODUCT('31396W','31396W',$,(#439));
#441=PRESENTATION_STYLE_ASSIGNMENT((#444));
#442=PRESENTATION_STYLE_ASSIGNMENT((#445));
#443=PRESENTATION_STYLE_ASSIGNMENT((#446));
#444=SURFACE_STYLE_USAGE(.BOTH.,#447);
#445=SURFACE_STYLE_USAGE(.BOTH.,#448);
#446=SURFACE_STYLE_USAGE(.BOTH.,#449);
#447=SURFACE_SIDE_STYLE($,(#450));
#448=SURFACE_SIDE_STYLE($,(#451));
#449=SURFACE_SIDE_STYLE($,(#452));
#450=SURFACE_STYLE_FILL_AREA(#453);
#451=SURFACE_STYLE_FILL_AREA(#454);
#452=SURFACE_STYLE_FILL_AREA(#455);
#453=FILL_AREA_STYLE($,(#456));
#454=FILL_AREA_STYLE($,(#457));
#455=FILL_AREA_STYLE($,(#458));
#456=FILL_AREA_STYLE_COLOUR($,#459);
#457=FILL_AREA_STYLE_COLOUR($,#460);
#458=FILL_AREA_STYLE_COLOUR($,#461);
#459=COLOUR_RGB('',0.749019607843137,0.749019607843137,0.749019607843137);
#460=COLOUR_RGB('',0.549019607843137,0.549019607843137,0.592156862745098);
#461=COLOUR_RGB('',0.549019607843137,0.549019607843137,0.592156862745098);
ENDSEC;
END-ISO-10303-21;
