ISO-10303-21;
HEADER;
/* Generated by software containing ST-Developer
 * from STEP Tools, Inc. (www.steptools.com) 
 */

FILE_DESCRIPTION(
/* description */ (''),
/* implementation_level */ '2;1');

FILE_NAME(
/* name */ 
'J:\\AM_Zeichnung\\Inventor\\PROJEKT_STAMMORDNER\\Druckmittler\\Druckm
ittler_Baugruppen\\MD63\\Step\\solid\\31340W.stp',
/* time_stamp */ '2018-02-05T13:30:44+01:00',
/* author */ ('acgl'),
/* organization */ (''),
/* preprocessor_version */ 'ST-DEVELOPER v15.6',
/* originating_system */ 'Autodesk Inventor 2015',
/* authorisation */ '');

FILE_SCHEMA (('AUTOMOTIVE_DESIGN { 1 0 10303 214 3 1 1 }'));
ENDSEC;

DATA;
#10=MECHANICAL_DESIGN_GEOMETRIC_PRESENTATION_REPRESENTATION('',(#214,#218,
#215,#219,#217,#216,#220,#221,#222,#223,#224,#225,#206,#205,#207,#208,#209,
#210,#211,#213,#212),#429);
#11=SHAPE_REPRESENTATION_RELATIONSHIP('SRR','None',#439,#12);
#12=ADVANCED_BREP_SHAPE_REPRESENTATION($,(#13),#428);
#13=MANIFOLD_SOLID_BREP('Volumenk\X\F6rper1',#246);
#14=CYLINDRICAL_SURFACE('',#260,3.3);
#15=CYLINDRICAL_SURFACE('',#264,2.65);
#16=CYLINDRICAL_SURFACE('',#270,2.5);
#17=CYLINDRICAL_SURFACE('',#277,2.3);
#18=CYLINDRICAL_SURFACE('',#282,0.275);
#19=CYLINDRICAL_SURFACE('',#286,0.505);
#20=CONICAL_SURFACE('',#258,3.02121410033376,65.);
#21=FACE_BOUND('',#67,.T.);
#22=FACE_BOUND('',#69,.T.);
#23=FACE_BOUND('',#71,.T.);
#24=FACE_BOUND('',#73,.T.);
#25=FACE_BOUND('',#75,.T.);
#26=FACE_BOUND('',#77,.T.);
#27=FACE_BOUND('',#79,.T.);
#28=FACE_BOUND('',#81,.T.);
#29=FACE_BOUND('',#83,.T.);
#30=FACE_BOUND('',#85,.T.);
#31=FACE_BOUND('',#87,.T.);
#32=FACE_BOUND('',#89,.T.);
#33=FACE_BOUND('',#91,.T.);
#34=FACE_BOUND('',#93,.T.);
#35=FACE_BOUND('',#95,.T.);
#36=FACE_BOUND('',#98,.T.);
#37=FACE_BOUND('',#100,.T.);
#38=FACE_BOUND('',#102,.T.);
#39=TOROIDAL_SURFACE('',#250,2.25,0.15);
#40=TOROIDAL_SURFACE('',#253,2.72025873440322,0.1);
#41=TOROIDAL_SURFACE('',#268,2.5,0.02);
#42=TOROIDAL_SURFACE('',#274,2.35,0.15);
#43=TOROIDAL_SURFACE('',#275,2.28,0.02);
#44=TOROIDAL_SURFACE('',#279,2.29,0.01);
#45=FACE_OUTER_BOUND('',#65,.T.);
#46=FACE_OUTER_BOUND('',#66,.T.);
#47=FACE_OUTER_BOUND('',#68,.T.);
#48=FACE_OUTER_BOUND('',#70,.T.);
#49=FACE_OUTER_BOUND('',#72,.T.);
#50=FACE_OUTER_BOUND('',#74,.T.);
#51=FACE_OUTER_BOUND('',#76,.T.);
#52=FACE_OUTER_BOUND('',#78,.T.);
#53=FACE_OUTER_BOUND('',#80,.T.);
#54=FACE_OUTER_BOUND('',#82,.T.);
#55=FACE_OUTER_BOUND('',#84,.T.);
#56=FACE_OUTER_BOUND('',#86,.T.);
#57=FACE_OUTER_BOUND('',#88,.T.);
#58=FACE_OUTER_BOUND('',#90,.T.);
#59=FACE_OUTER_BOUND('',#92,.T.);
#60=FACE_OUTER_BOUND('',#94,.T.);
#61=FACE_OUTER_BOUND('',#96,.T.);
#62=FACE_OUTER_BOUND('',#97,.T.);
#63=FACE_OUTER_BOUND('',#99,.T.);
#64=FACE_OUTER_BOUND('',#101,.T.);
#65=EDGE_LOOP('',(#160));
#66=EDGE_LOOP('',(#161));
#67=EDGE_LOOP('',(#162));
#68=EDGE_LOOP('',(#163));
#69=EDGE_LOOP('',(#164));
#70=EDGE_LOOP('',(#165));
#71=EDGE_LOOP('',(#166));
#72=EDGE_LOOP('',(#167));
#73=EDGE_LOOP('',(#168));
#74=EDGE_LOOP('',(#169));
#75=EDGE_LOOP('',(#170));
#76=EDGE_LOOP('',(#171));
#77=EDGE_LOOP('',(#172));
#78=EDGE_LOOP('',(#173));
#79=EDGE_LOOP('',(#174));
#80=EDGE_LOOP('',(#175));
#81=EDGE_LOOP('',(#176));
#82=EDGE_LOOP('',(#177));
#83=EDGE_LOOP('',(#178));
#84=EDGE_LOOP('',(#179));
#85=EDGE_LOOP('',(#180));
#86=EDGE_LOOP('',(#181));
#87=EDGE_LOOP('',(#182));
#88=EDGE_LOOP('',(#183));
#89=EDGE_LOOP('',(#184));
#90=EDGE_LOOP('',(#185));
#91=EDGE_LOOP('',(#186));
#92=EDGE_LOOP('',(#187));
#93=EDGE_LOOP('',(#188));
#94=EDGE_LOOP('',(#189));
#95=EDGE_LOOP('',(#190));
#96=EDGE_LOOP('',(#191));
#97=EDGE_LOOP('',(#192));
#98=EDGE_LOOP('',(#193));
#99=EDGE_LOOP('',(#194));
#100=EDGE_LOOP('',(#195));
#101=EDGE_LOOP('',(#196));
#102=EDGE_LOOP('',(#197));
#103=CIRCLE('',#249,0.275);
#104=CIRCLE('',#251,2.29591076489976);
#105=CIRCLE('',#252,2.3);
#106=CIRCLE('',#254,2.72025873440322);
#107=CIRCLE('',#255,2.76252056057729);
#108=CIRCLE('',#257,0.505);
#109=CIRCLE('',#259,3.3);
#110=CIRCLE('',#261,3.3);
#111=CIRCLE('',#263,2.65);
#112=CIRCLE('',#265,2.65);
#113=CIRCLE('',#267,2.5);
#114=CIRCLE('',#269,2.5);
#115=CIRCLE('',#271,2.5);
#116=CIRCLE('',#273,2.35);
#117=CIRCLE('',#276,2.3);
#118=CIRCLE('',#278,2.3);
#119=CIRCLE('',#280,2.29);
#120=CIRCLE('',#283,0.275);
#121=CIRCLE('',#285,0.505);
#122=VERTEX_POINT('',#369);
#123=VERTEX_POINT('',#372);
#124=VERTEX_POINT('',#374);
#125=VERTEX_POINT('',#377);
#126=VERTEX_POINT('',#379);
#127=VERTEX_POINT('',#382);
#128=VERTEX_POINT('',#385);
#129=VERTEX_POINT('',#388);
#130=VERTEX_POINT('',#391);
#131=VERTEX_POINT('',#394);
#132=VERTEX_POINT('',#397);
#133=VERTEX_POINT('',#400);
#134=VERTEX_POINT('',#403);
#135=VERTEX_POINT('',#406);
#136=VERTEX_POINT('',#410);
#137=VERTEX_POINT('',#413);
#138=VERTEX_POINT('',#416);
#139=VERTEX_POINT('',#420);
#140=VERTEX_POINT('',#423);
#141=EDGE_CURVE('',#122,#122,#103,.T.);
#142=EDGE_CURVE('',#123,#123,#104,.T.);
#143=EDGE_CURVE('',#124,#124,#105,.T.);
#144=EDGE_CURVE('',#125,#125,#106,.T.);
#145=EDGE_CURVE('',#126,#126,#107,.T.);
#146=EDGE_CURVE('',#127,#127,#108,.T.);
#147=EDGE_CURVE('',#128,#128,#109,.T.);
#148=EDGE_CURVE('',#129,#129,#110,.T.);
#149=EDGE_CURVE('',#130,#130,#111,.T.);
#150=EDGE_CURVE('',#131,#131,#112,.T.);
#151=EDGE_CURVE('',#132,#132,#113,.T.);
#152=EDGE_CURVE('',#133,#133,#114,.T.);
#153=EDGE_CURVE('',#134,#134,#115,.T.);
#154=EDGE_CURVE('',#135,#135,#116,.T.);
#155=EDGE_CURVE('',#136,#136,#117,.T.);
#156=EDGE_CURVE('',#137,#137,#118,.T.);
#157=EDGE_CURVE('',#138,#138,#119,.T.);
#158=EDGE_CURVE('',#139,#139,#120,.T.);
#159=EDGE_CURVE('',#140,#140,#121,.T.);
#160=ORIENTED_EDGE('',*,*,#141,.F.);
#161=ORIENTED_EDGE('',*,*,#142,.F.);
#162=ORIENTED_EDGE('',*,*,#143,.F.);
#163=ORIENTED_EDGE('',*,*,#144,.T.);
#164=ORIENTED_EDGE('',*,*,#145,.T.);
#165=ORIENTED_EDGE('',*,*,#144,.F.);
#166=ORIENTED_EDGE('',*,*,#146,.T.);
#167=ORIENTED_EDGE('',*,*,#147,.F.);
#168=ORIENTED_EDGE('',*,*,#145,.F.);
#169=ORIENTED_EDGE('',*,*,#148,.F.);
#170=ORIENTED_EDGE('',*,*,#147,.T.);
#171=ORIENTED_EDGE('',*,*,#148,.T.);
#172=ORIENTED_EDGE('',*,*,#149,.F.);
#173=ORIENTED_EDGE('',*,*,#150,.F.);
#174=ORIENTED_EDGE('',*,*,#149,.T.);
#175=ORIENTED_EDGE('',*,*,#150,.T.);
#176=ORIENTED_EDGE('',*,*,#151,.F.);
#177=ORIENTED_EDGE('',*,*,#152,.F.);
#178=ORIENTED_EDGE('',*,*,#151,.T.);
#179=ORIENTED_EDGE('',*,*,#153,.F.);
#180=ORIENTED_EDGE('',*,*,#152,.T.);
#181=ORIENTED_EDGE('',*,*,#153,.T.);
#182=ORIENTED_EDGE('',*,*,#154,.F.);
#183=ORIENTED_EDGE('',*,*,#143,.T.);
#184=ORIENTED_EDGE('',*,*,#154,.T.);
#185=ORIENTED_EDGE('',*,*,#142,.T.);
#186=ORIENTED_EDGE('',*,*,#155,.F.);
#187=ORIENTED_EDGE('',*,*,#156,.F.);
#188=ORIENTED_EDGE('',*,*,#155,.T.);
#189=ORIENTED_EDGE('',*,*,#157,.F.);
#190=ORIENTED_EDGE('',*,*,#156,.T.);
#191=ORIENTED_EDGE('',*,*,#157,.T.);
#192=ORIENTED_EDGE('',*,*,#158,.F.);
#193=ORIENTED_EDGE('',*,*,#141,.T.);
#194=ORIENTED_EDGE('',*,*,#159,.F.);
#195=ORIENTED_EDGE('',*,*,#158,.T.);
#196=ORIENTED_EDGE('',*,*,#146,.F.);
#197=ORIENTED_EDGE('',*,*,#159,.T.);
#198=PLANE('',#248);
#199=PLANE('',#256);
#200=PLANE('',#262);
#201=PLANE('',#266);
#202=PLANE('',#272);
#203=PLANE('',#281);
#204=PLANE('',#284);
#205=STYLED_ITEM('',(#449),#226);
#206=STYLED_ITEM('',(#450),#227);
#207=STYLED_ITEM('',(#449),#228);
#208=STYLED_ITEM('',(#449),#229);
#209=STYLED_ITEM('',(#449),#230);
#210=STYLED_ITEM('',(#449),#231);
#211=STYLED_ITEM('',(#449),#232);
#212=STYLED_ITEM('',(#449),#233);
#213=STYLED_ITEM('',(#449),#234);
#214=STYLED_ITEM('',(#449),#235);
#215=STYLED_ITEM('',(#449),#236);
#216=STYLED_ITEM('',(#449),#237);
#217=STYLED_ITEM('',(#449),#238);
#218=STYLED_ITEM('',(#449),#239);
#219=STYLED_ITEM('',(#449),#240);
#220=STYLED_ITEM('',(#449),#241);
#221=STYLED_ITEM('',(#449),#242);
#222=STYLED_ITEM('',(#449),#243);
#223=STYLED_ITEM('',(#449),#244);
#224=STYLED_ITEM('',(#449),#245);
#225=STYLED_ITEM('',(#448),#13);
#226=ADVANCED_FACE('',(#45),#198,.F.);
#227=ADVANCED_FACE('',(#46,#21),#39,.T.);
#228=ADVANCED_FACE('',(#47,#22),#40,.T.);
#229=ADVANCED_FACE('',(#48,#23),#199,.T.);
#230=ADVANCED_FACE('',(#49,#24),#20,.T.);
#231=ADVANCED_FACE('',(#50,#25),#14,.T.);
#232=ADVANCED_FACE('',(#51,#26),#200,.T.);
#233=ADVANCED_FACE('',(#52,#27),#15,.T.);
#234=ADVANCED_FACE('',(#53,#28),#201,.T.);
#235=ADVANCED_FACE('',(#54,#29),#41,.F.);
#236=ADVANCED_FACE('',(#55,#30),#16,.T.);
#237=ADVANCED_FACE('',(#56,#31),#202,.T.);
#238=ADVANCED_FACE('',(#57,#32),#42,.F.);
#239=ADVANCED_FACE('',(#58,#33),#43,.T.);
#240=ADVANCED_FACE('',(#59,#34),#17,.T.);
#241=ADVANCED_FACE('',(#60,#35),#44,.T.);
#242=ADVANCED_FACE('',(#61),#203,.T.);
#243=ADVANCED_FACE('',(#62,#36),#18,.F.);
#244=ADVANCED_FACE('',(#63,#37),#204,.T.);
#245=ADVANCED_FACE('',(#64,#38),#19,.F.);
#246=CLOSED_SHELL('',(#226,#227,#228,#229,#230,#231,#232,#233,#234,#235,
#236,#237,#238,#239,#240,#241,#242,#243,#244,#245));
#247=AXIS2_PLACEMENT_3D('placement',#367,#287,#288);
#248=AXIS2_PLACEMENT_3D('',#368,#289,#290);
#249=AXIS2_PLACEMENT_3D('',#370,#291,#292);
#250=AXIS2_PLACEMENT_3D('',#371,#293,#294);
#251=AXIS2_PLACEMENT_3D('',#373,#295,#296);
#252=AXIS2_PLACEMENT_3D('',#375,#297,#298);
#253=AXIS2_PLACEMENT_3D('',#376,#299,#300);
#254=AXIS2_PLACEMENT_3D('',#378,#301,#302);
#255=AXIS2_PLACEMENT_3D('',#380,#303,#304);
#256=AXIS2_PLACEMENT_3D('',#381,#305,#306);
#257=AXIS2_PLACEMENT_3D('',#383,#307,#308);
#258=AXIS2_PLACEMENT_3D('',#384,#309,#310);
#259=AXIS2_PLACEMENT_3D('',#386,#311,#312);
#260=AXIS2_PLACEMENT_3D('',#387,#313,#314);
#261=AXIS2_PLACEMENT_3D('',#389,#315,#316);
#262=AXIS2_PLACEMENT_3D('',#390,#317,#318);
#263=AXIS2_PLACEMENT_3D('',#392,#319,#320);
#264=AXIS2_PLACEMENT_3D('',#393,#321,#322);
#265=AXIS2_PLACEMENT_3D('',#395,#323,#324);
#266=AXIS2_PLACEMENT_3D('',#396,#325,#326);
#267=AXIS2_PLACEMENT_3D('',#398,#327,#328);
#268=AXIS2_PLACEMENT_3D('',#399,#329,#330);
#269=AXIS2_PLACEMENT_3D('',#401,#331,#332);
#270=AXIS2_PLACEMENT_3D('',#402,#333,#334);
#271=AXIS2_PLACEMENT_3D('',#404,#335,#336);
#272=AXIS2_PLACEMENT_3D('',#405,#337,#338);
#273=AXIS2_PLACEMENT_3D('',#407,#339,#340);
#274=AXIS2_PLACEMENT_3D('',#408,#341,#342);
#275=AXIS2_PLACEMENT_3D('',#409,#343,#344);
#276=AXIS2_PLACEMENT_3D('',#411,#345,#346);
#277=AXIS2_PLACEMENT_3D('',#412,#347,#348);
#278=AXIS2_PLACEMENT_3D('',#414,#349,#350);
#279=AXIS2_PLACEMENT_3D('',#415,#351,#352);
#280=AXIS2_PLACEMENT_3D('',#417,#353,#354);
#281=AXIS2_PLACEMENT_3D('',#418,#355,#356);
#282=AXIS2_PLACEMENT_3D('',#419,#357,#358);
#283=AXIS2_PLACEMENT_3D('',#421,#359,#360);
#284=AXIS2_PLACEMENT_3D('',#422,#361,#362);
#285=AXIS2_PLACEMENT_3D('',#424,#363,#364);
#286=AXIS2_PLACEMENT_3D('',#425,#365,#366);
#287=DIRECTION('axis',(0.,0.,1.));
#288=DIRECTION('refdir',(1.,0.,0.));
#289=DIRECTION('center_axis',(0.,1.,0.));
#290=DIRECTION('ref_axis',(0.,0.,1.));
#291=DIRECTION('center_axis',(0.,1.,0.));
#292=DIRECTION('ref_axis',(1.,7.13417273712382E-18,0.));
#293=DIRECTION('center_axis',(-6.17202506339936E-17,-1.,-5.87720389045828E-19));
#294=DIRECTION('ref_axis',(-0.123312494727027,0.,-0.992367889768808));
#295=DIRECTION('center_axis',(6.17202506339936E-17,1.,5.87720389045828E-19));
#296=DIRECTION('ref_axis',(-5.36865449324921E-33,0.,-1.));
#297=DIRECTION('center_axis',(-6.17202506339936E-17,-1.,-5.87720389045828E-19));
#298=DIRECTION('ref_axis',(-1.33977735261721E-33,0.,-1.));
#299=DIRECTION('center_axis',(0.,1.,0.));
#300=DIRECTION('ref_axis',(0.,0.,1.));
#301=DIRECTION('center_axis',(0.,1.,0.));
#302=DIRECTION('ref_axis',(-1.,0.,-1.22464679914735E-16));
#303=DIRECTION('center_axis',(5.0235962062539E-18,-1.,-5.0235962062539E-18));
#304=DIRECTION('ref_axis',(-1.,-5.0235962062539E-18,1.78473989587285E-32));
#305=DIRECTION('center_axis',(0.,-1.,0.));
#306=DIRECTION('ref_axis',(0.,0.,-1.));
#307=DIRECTION('center_axis',(0.,1.,0.));
#308=DIRECTION('ref_axis',(1.,7.13417273712382E-18,0.));
#309=DIRECTION('center_axis',(0.,1.,0.));
#310=DIRECTION('ref_axis',(1.,7.13417273712382E-18,0.));
#311=DIRECTION('center_axis',(0.,1.,0.));
#312=DIRECTION('ref_axis',(1.,7.13417273712382E-18,0.));
#313=DIRECTION('center_axis',(0.,1.,0.));
#314=DIRECTION('ref_axis',(1.,7.13417273712382E-18,0.));
#315=DIRECTION('center_axis',(0.,1.,0.));
#316=DIRECTION('ref_axis',(1.,7.13417273712382E-18,0.));
#317=DIRECTION('center_axis',(0.,1.,0.));
#318=DIRECTION('ref_axis',(0.,0.,1.));
#319=DIRECTION('center_axis',(0.,1.,0.));
#320=DIRECTION('ref_axis',(1.,7.13417273712382E-18,0.));
#321=DIRECTION('center_axis',(0.,1.,0.));
#322=DIRECTION('ref_axis',(1.,7.13417273712382E-18,0.));
#323=DIRECTION('center_axis',(0.,1.,0.));
#324=DIRECTION('ref_axis',(1.,7.13417273712382E-18,0.));
#325=DIRECTION('center_axis',(0.,1.,0.));
#326=DIRECTION('ref_axis',(0.,0.,1.));
#327=DIRECTION('center_axis',(0.,1.,0.));
#328=DIRECTION('ref_axis',(1.,7.13417273712382E-18,0.));
#329=DIRECTION('center_axis',(0.,1.,0.));
#330=DIRECTION('ref_axis',(0.,0.,1.));
#331=DIRECTION('center_axis',(0.,1.,0.));
#332=DIRECTION('ref_axis',(1.,7.13417273712382E-18,0.));
#333=DIRECTION('center_axis',(0.,1.,0.));
#334=DIRECTION('ref_axis',(1.,7.13417273712382E-18,0.));
#335=DIRECTION('center_axis',(0.,1.,0.));
#336=DIRECTION('ref_axis',(1.,7.13417273712382E-18,0.));
#337=DIRECTION('center_axis',(0.,1.,0.));
#338=DIRECTION('ref_axis',(0.,0.,1.));
#339=DIRECTION('center_axis',(0.,1.,0.));
#340=DIRECTION('ref_axis',(1.,7.13417273712382E-18,0.));
#341=DIRECTION('center_axis',(0.,1.,0.));
#342=DIRECTION('ref_axis',(0.,0.,1.));
#343=DIRECTION('center_axis',(0.,1.,0.));
#344=DIRECTION('ref_axis',(0.,0.,1.));
#345=DIRECTION('center_axis',(0.,1.,0.));
#346=DIRECTION('ref_axis',(1.,7.13417273712382E-18,0.));
#347=DIRECTION('center_axis',(0.,1.,0.));
#348=DIRECTION('ref_axis',(1.,7.13417273712382E-18,0.));
#349=DIRECTION('center_axis',(0.,1.,0.));
#350=DIRECTION('ref_axis',(1.,7.13417273712382E-18,0.));
#351=DIRECTION('center_axis',(0.,1.,0.));
#352=DIRECTION('ref_axis',(0.,0.,1.));
#353=DIRECTION('center_axis',(0.,1.,0.));
#354=DIRECTION('ref_axis',(1.,7.13417273712382E-18,0.));
#355=DIRECTION('center_axis',(0.,1.,0.));
#356=DIRECTION('ref_axis',(0.,0.,1.));
#357=DIRECTION('center_axis',(0.,1.,0.));
#358=DIRECTION('ref_axis',(1.,7.13417273712382E-18,0.));
#359=DIRECTION('center_axis',(0.,1.,0.));
#360=DIRECTION('ref_axis',(1.,7.13417273712382E-18,0.));
#361=DIRECTION('center_axis',(0.,-1.,0.));
#362=DIRECTION('ref_axis',(0.,0.,-1.));
#363=DIRECTION('center_axis',(0.,1.,0.));
#364=DIRECTION('ref_axis',(1.,7.13417273712382E-18,0.));
#365=DIRECTION('center_axis',(0.,1.,0.));
#366=DIRECTION('ref_axis',(1.,7.13417273712382E-18,0.));
#367=CARTESIAN_POINT('',(0.,0.,0.));
#368=CARTESIAN_POINT('Origin',(0.,0.18,0.));
#369=CARTESIAN_POINT('',(0.275,0.18,0.));
#370=CARTESIAN_POINT('Origin',(0.,0.18,0.));
#371=CARTESIAN_POINT('Origin',(0.,1.5299999829291,0.));
#372=CARTESIAN_POINT('',(2.89981706885171E-16,1.67280124926214,2.29591076489976));
#373=CARTESIAN_POINT('Origin',(8.81372994892677E-18,1.67280124926214,8.39272158054898E-20));
#374=CARTESIAN_POINT('',(-2.90397325355857E-16,1.38857862669179,2.3));
#375=CARTESIAN_POINT('Origin',(-8.72856155196604E-18,1.38857862669179,-8.31162145071801E-20));
#376=CARTESIAN_POINT('Origin',(0.,0.1,0.));
#377=CARTESIAN_POINT('',(2.72025873440322,0.,0.));
#378=CARTESIAN_POINT('Origin',(0.,0.,0.));
#379=CARTESIAN_POINT('',(2.76252056057729,0.00936922129633497,6.76622392417946E-16));
#380=CARTESIAN_POINT('Origin',(0.,0.00936922129633495,3.38311196208973E-16));
#381=CARTESIAN_POINT('Origin',(1.62371410033376,0.,0.));
#382=CARTESIAN_POINT('',(0.505,0.,0.));
#383=CARTESIAN_POINT('Origin',(0.,0.,0.));
#384=CARTESIAN_POINT('Origin',(0.,0.13,0.));
#385=CARTESIAN_POINT('',(3.3,0.260000000000001,0.));
#386=CARTESIAN_POINT('Origin',(0.,0.260000000000001,0.));
#387=CARTESIAN_POINT('Origin',(0.,0.365,0.));
#388=CARTESIAN_POINT('',(3.3,0.47,0.));
#389=CARTESIAN_POINT('Origin',(0.,0.47,0.));
#390=CARTESIAN_POINT('Origin',(2.975,0.47,0.));
#391=CARTESIAN_POINT('',(2.65,0.47,0.));
#392=CARTESIAN_POINT('Origin',(0.,0.47,0.));
#393=CARTESIAN_POINT('Origin',(0.,0.70999999146455,0.));
#394=CARTESIAN_POINT('',(2.65,0.949999982929099,0.));
#395=CARTESIAN_POINT('Origin',(0.,0.949999982929099,0.));
#396=CARTESIAN_POINT('Origin',(2.575,0.949999982929099,0.));
#397=CARTESIAN_POINT('',(2.5,0.949999982929099,0.));
#398=CARTESIAN_POINT('Origin',(0.,0.949999982929099,0.));
#399=CARTESIAN_POINT('Origin',(0.,0.969999982929099,0.));
#400=CARTESIAN_POINT('',(2.5,0.989999982929099,0.));
#401=CARTESIAN_POINT('Origin',(0.,0.989999982929099,0.));
#402=CARTESIAN_POINT('Origin',(0.,1.1849999829291,0.));
#403=CARTESIAN_POINT('',(2.5,1.3799999829291,0.));
#404=CARTESIAN_POINT('Origin',(0.,1.3799999829291,0.));
#405=CARTESIAN_POINT('Origin',(2.425,1.3799999829291,0.));
#406=CARTESIAN_POINT('',(2.35,1.3799999829291,0.));
#407=CARTESIAN_POINT('Origin',(0.,1.3799999829291,0.));
#408=CARTESIAN_POINT('Origin',(0.,1.5299999829291,0.));
#409=CARTESIAN_POINT('Origin',(0.,1.6849193167774,0.));
#410=CARTESIAN_POINT('',(2.3,1.6849193167774,0.));
#411=CARTESIAN_POINT('Origin',(0.,1.6849193167774,0.));
#412=CARTESIAN_POINT('Origin',(0.,1.68745964985325,0.));
#413=CARTESIAN_POINT('',(2.3,1.6899999829291,0.));
#414=CARTESIAN_POINT('Origin',(0.,1.6899999829291,0.));
#415=CARTESIAN_POINT('Origin',(0.,1.6899999829291,0.));
#416=CARTESIAN_POINT('',(2.29,1.6999999829291,0.));
#417=CARTESIAN_POINT('Origin',(0.,1.6999999829291,0.));
#418=CARTESIAN_POINT('Origin',(1.98,1.6999999829291,0.));
#419=CARTESIAN_POINT('Origin',(0.,0.13,0.));
#420=CARTESIAN_POINT('',(0.275,0.0799999999999995,0.));
#421=CARTESIAN_POINT('Origin',(0.,0.0799999999999995,0.));
#422=CARTESIAN_POINT('Origin',(0.39,0.0799999999999995,0.));
#423=CARTESIAN_POINT('',(0.505,0.0799999999999996,0.));
#424=CARTESIAN_POINT('Origin',(0.,0.0799999999999996,0.));
#425=CARTESIAN_POINT('Origin',(0.,0.0399999999999998,0.));
#426=UNCERTAINTY_MEASURE_WITH_UNIT(LENGTH_MEASURE(0.001),#430,
'DISTANCE_ACCURACY_VALUE',
'Maximum model space distance between geometric entities at asserted c
onnectivities');
#427=UNCERTAINTY_MEASURE_WITH_UNIT(LENGTH_MEASURE(1.E-6),#431,
'DISTANCE_ACCURACY_VALUE',
'Maximum model space distance between geometric entities at asserted c
onnectivities');
#428=(
GEOMETRIC_REPRESENTATION_CONTEXT(3)
GLOBAL_UNCERTAINTY_ASSIGNED_CONTEXT((#426))
GLOBAL_UNIT_ASSIGNED_CONTEXT((#430,#434,#432))
REPRESENTATION_CONTEXT('','3D')
);
#429=(
GEOMETRIC_REPRESENTATION_CONTEXT(3)
GLOBAL_UNCERTAINTY_ASSIGNED_CONTEXT((#427))
GLOBAL_UNIT_ASSIGNED_CONTEXT((#431,#434,#432))
REPRESENTATION_CONTEXT('','3D')
);
#430=(
LENGTH_UNIT()
NAMED_UNIT(*)
SI_UNIT(.CENTI.,.METRE.)
);
#431=(
LENGTH_UNIT()
NAMED_UNIT(*)
SI_UNIT(.MILLI.,.METRE.)
);
#432=(
NAMED_UNIT(*)
SI_UNIT($,.STERADIAN.)
SOLID_ANGLE_UNIT()
);
#433=DIMENSIONAL_EXPONENTS(0.,0.,0.,0.,0.,0.,0.);
#434=(
CONVERSION_BASED_UNIT('degree',#436)
NAMED_UNIT(#433)
PLANE_ANGLE_UNIT()
);
#435=(
NAMED_UNIT(*)
PLANE_ANGLE_UNIT()
SI_UNIT($,.RADIAN.)
);
#436=PLANE_ANGLE_MEASURE_WITH_UNIT(PLANE_ANGLE_MEASURE(0.01745329252),#435);
#437=SHAPE_DEFINITION_REPRESENTATION(#438,#439);
#438=PRODUCT_DEFINITION_SHAPE('',$,#441);
#439=SHAPE_REPRESENTATION('',(#247),#428);
#440=PRODUCT_DEFINITION_CONTEXT('part definition',#445,'design');
#441=PRODUCT_DEFINITION('31340W','31340W',#442,#440);
#442=PRODUCT_DEFINITION_FORMATION('',$,#447);
#443=PRODUCT_RELATED_PRODUCT_CATEGORY('31340W','31340W',(#447));
#444=APPLICATION_PROTOCOL_DEFINITION('international standard',
'automotive_design',2009,#445);
#445=APPLICATION_CONTEXT(
'Core Data for Automotive Mechanical Design Process');
#446=PRODUCT_CONTEXT('part definition',#445,'mechanical');
#447=PRODUCT('31340W','31340W',$,(#446));
#448=PRESENTATION_STYLE_ASSIGNMENT((#451));
#449=PRESENTATION_STYLE_ASSIGNMENT((#452));
#450=PRESENTATION_STYLE_ASSIGNMENT((#453));
#451=SURFACE_STYLE_USAGE(.BOTH.,#454);
#452=SURFACE_STYLE_USAGE(.BOTH.,#455);
#453=SURFACE_STYLE_USAGE(.BOTH.,#456);
#454=SURFACE_SIDE_STYLE($,(#457));
#455=SURFACE_SIDE_STYLE($,(#458));
#456=SURFACE_SIDE_STYLE($,(#459));
#457=SURFACE_STYLE_FILL_AREA(#460);
#458=SURFACE_STYLE_FILL_AREA(#461);
#459=SURFACE_STYLE_FILL_AREA(#462);
#460=FILL_AREA_STYLE($,(#463));
#461=FILL_AREA_STYLE($,(#464));
#462=FILL_AREA_STYLE($,(#465));
#463=FILL_AREA_STYLE_COLOUR($,#466);
#464=FILL_AREA_STYLE_COLOUR($,#467);
#465=FILL_AREA_STYLE_COLOUR($,#468);
#466=COLOUR_RGB('',0.749019607843137,0.749019607843137,0.749019607843137);
#467=COLOUR_RGB('',0.549019607843137,0.549019607843137,0.592156862745098);
#468=COLOUR_RGB('',0.250980392156863,0.250980392156863,0.250980392156863);
ENDSEC;
END-ISO-10303-21;
