ISO-10303-21;
HEADER;
/* Generated by software containing ST-Developer
 * from STEP Tools, Inc. (www.steptools.com) 
 */

FILE_DESCRIPTION(
/* description */ (''),
/* implementation_level */ '2;1');

FILE_NAME(
/* name */ 
'J:\\AM_Zeichnung\\Inventor\\PROJEKT_STAMMORDNER\\Druckmittler\\Druckm
ittler_Baugruppen\\MD40\\step\\solid\\31347W.stp',
/* time_stamp */ '2018-02-05T10:32:32+01:00',
/* author */ ('acgl'),
/* organization */ (''),
/* preprocessor_version */ 'ST-DEVELOPER v15.6',
/* originating_system */ 'Autodesk Inventor 2015',
/* authorisation */ '');

FILE_SCHEMA (('AUTOMOTIVE_DESIGN { 1 0 10303 214 3 1 1 }'));
ENDSEC;

DATA;
#10=MECHANICAL_DESIGN_GEOMETRIC_PRESENTATION_REPRESENTATION('',(#270,#269,
#272,#273,#271,#276,#280,#274,#277,#279,#278,#281,#275,#283,#284,#282,#286,
#288,#285,#290,#289,#287),#534);
#11=SHAPE_REPRESENTATION_RELATIONSHIP('SRR','None',#544,#12);
#12=ADVANCED_BREP_SHAPE_REPRESENTATION($,(#13),#533);
#13=MANIFOLD_SOLID_BREP('Volumenk\X\F6rper1',#312);
#14=CONICAL_SURFACE('',#337,4.225,44.9999999999998);
#15=CONICAL_SURFACE('',#344,4.225,44.9999999999998);
#16=CONICAL_SURFACE('',#356,1.825,83.6598082540902);
#17=CYLINDRICAL_SURFACE('',#319,0.35);
#18=CYLINDRICAL_SURFACE('',#322,0.35);
#19=CYLINDRICAL_SURFACE('',#325,0.35);
#20=CYLINDRICAL_SURFACE('',#328,0.35);
#21=CYLINDRICAL_SURFACE('',#331,0.35);
#22=CYLINDRICAL_SURFACE('',#334,0.35);
#23=CYLINDRICAL_SURFACE('',#340,4.25);
#24=CYLINDRICAL_SURFACE('',#348,0.275);
#25=CYLINDRICAL_SURFACE('',#352,0.505);
#26=CYLINDRICAL_SURFACE('',#357,2.95);
#27=CYLINDRICAL_SURFACE('',#358,2.4);
#28=FACE_BOUND('',#82,.T.);
#29=FACE_BOUND('',#84,.T.);
#30=FACE_BOUND('',#86,.T.);
#31=FACE_BOUND('',#88,.T.);
#32=FACE_BOUND('',#90,.T.);
#33=FACE_BOUND('',#92,.T.);
#34=FACE_BOUND('',#94,.T.);
#35=FACE_BOUND('',#96,.T.);
#36=FACE_BOUND('',#98,.T.);
#37=FACE_BOUND('',#100,.T.);
#38=FACE_BOUND('',#101,.T.);
#39=FACE_BOUND('',#102,.T.);
#40=FACE_BOUND('',#103,.T.);
#41=FACE_BOUND('',#104,.T.);
#42=FACE_BOUND('',#105,.T.);
#43=FACE_BOUND('',#106,.T.);
#44=FACE_BOUND('',#108,.T.);
#45=FACE_BOUND('',#110,.T.);
#46=FACE_BOUND('',#111,.T.);
#47=FACE_BOUND('',#112,.T.);
#48=FACE_BOUND('',#113,.T.);
#49=FACE_BOUND('',#114,.T.);
#50=FACE_BOUND('',#115,.T.);
#51=FACE_BOUND('',#116,.T.);
#52=FACE_BOUND('',#118,.T.);
#53=FACE_BOUND('',#120,.T.);
#54=FACE_BOUND('',#122,.T.);
#55=FACE_BOUND('',#124,.T.);
#56=FACE_BOUND('',#126,.T.);
#57=FACE_BOUND('',#128,.T.);
#58=FACE_BOUND('',#130,.T.);
#59=FACE_OUTER_BOUND('',#80,.T.);
#60=FACE_OUTER_BOUND('',#81,.T.);
#61=FACE_OUTER_BOUND('',#83,.T.);
#62=FACE_OUTER_BOUND('',#85,.T.);
#63=FACE_OUTER_BOUND('',#87,.T.);
#64=FACE_OUTER_BOUND('',#89,.T.);
#65=FACE_OUTER_BOUND('',#91,.T.);
#66=FACE_OUTER_BOUND('',#93,.T.);
#67=FACE_OUTER_BOUND('',#95,.T.);
#68=FACE_OUTER_BOUND('',#97,.T.);
#69=FACE_OUTER_BOUND('',#99,.T.);
#70=FACE_OUTER_BOUND('',#107,.T.);
#71=FACE_OUTER_BOUND('',#109,.T.);
#72=FACE_OUTER_BOUND('',#117,.T.);
#73=FACE_OUTER_BOUND('',#119,.T.);
#74=FACE_OUTER_BOUND('',#121,.T.);
#75=FACE_OUTER_BOUND('',#123,.T.);
#76=FACE_OUTER_BOUND('',#125,.T.);
#77=FACE_OUTER_BOUND('',#127,.T.);
#78=FACE_OUTER_BOUND('',#129,.T.);
#79=FACE_OUTER_BOUND('',#131,.T.);
#80=EDGE_LOOP('',(#210));
#81=EDGE_LOOP('',(#211));
#82=EDGE_LOOP('',(#212));
#83=EDGE_LOOP('',(#213));
#84=EDGE_LOOP('',(#214));
#85=EDGE_LOOP('',(#215));
#86=EDGE_LOOP('',(#216));
#87=EDGE_LOOP('',(#217));
#88=EDGE_LOOP('',(#218));
#89=EDGE_LOOP('',(#219));
#90=EDGE_LOOP('',(#220));
#91=EDGE_LOOP('',(#221));
#92=EDGE_LOOP('',(#222));
#93=EDGE_LOOP('',(#223));
#94=EDGE_LOOP('',(#224));
#95=EDGE_LOOP('',(#225));
#96=EDGE_LOOP('',(#226));
#97=EDGE_LOOP('',(#227));
#98=EDGE_LOOP('',(#228));
#99=EDGE_LOOP('',(#229));
#100=EDGE_LOOP('',(#230));
#101=EDGE_LOOP('',(#231));
#102=EDGE_LOOP('',(#232));
#103=EDGE_LOOP('',(#233));
#104=EDGE_LOOP('',(#234));
#105=EDGE_LOOP('',(#235));
#106=EDGE_LOOP('',(#236));
#107=EDGE_LOOP('',(#237));
#108=EDGE_LOOP('',(#238));
#109=EDGE_LOOP('',(#239));
#110=EDGE_LOOP('',(#240));
#111=EDGE_LOOP('',(#241));
#112=EDGE_LOOP('',(#242));
#113=EDGE_LOOP('',(#243));
#114=EDGE_LOOP('',(#244));
#115=EDGE_LOOP('',(#245));
#116=EDGE_LOOP('',(#246));
#117=EDGE_LOOP('',(#247));
#118=EDGE_LOOP('',(#248));
#119=EDGE_LOOP('',(#249));
#120=EDGE_LOOP('',(#250));
#121=EDGE_LOOP('',(#251));
#122=EDGE_LOOP('',(#252));
#123=EDGE_LOOP('',(#253));
#124=EDGE_LOOP('',(#254));
#125=EDGE_LOOP('',(#255));
#126=EDGE_LOOP('',(#256));
#127=EDGE_LOOP('',(#257));
#128=EDGE_LOOP('',(#258));
#129=EDGE_LOOP('',(#259));
#130=EDGE_LOOP('',(#260));
#131=EDGE_LOOP('',(#261));
#132=CIRCLE('',#315,0.275);
#133=CIRCLE('',#317,2.95);
#134=CIRCLE('',#318,2.4);
#135=CIRCLE('',#320,0.35);
#136=CIRCLE('',#321,0.35);
#137=CIRCLE('',#323,0.35);
#138=CIRCLE('',#324,0.35);
#139=CIRCLE('',#326,0.35);
#140=CIRCLE('',#327,0.35);
#141=CIRCLE('',#329,0.35);
#142=CIRCLE('',#330,0.35);
#143=CIRCLE('',#332,0.35);
#144=CIRCLE('',#333,0.35);
#145=CIRCLE('',#335,0.35);
#146=CIRCLE('',#336,0.35);
#147=CIRCLE('',#338,4.25);
#148=CIRCLE('',#339,4.2);
#149=CIRCLE('',#341,4.25);
#150=CIRCLE('',#343,2.95);
#151=CIRCLE('',#345,4.2);
#152=CIRCLE('',#347,2.5);
#153=CIRCLE('',#349,0.275);
#154=CIRCLE('',#351,0.505);
#155=CIRCLE('',#353,0.505);
#156=CIRCLE('',#355,1.15);
#157=CIRCLE('',#359,2.4);
#158=VERTEX_POINT('',#459);
#159=VERTEX_POINT('',#462);
#160=VERTEX_POINT('',#464);
#161=VERTEX_POINT('',#467);
#162=VERTEX_POINT('',#469);
#163=VERTEX_POINT('',#472);
#164=VERTEX_POINT('',#474);
#165=VERTEX_POINT('',#477);
#166=VERTEX_POINT('',#479);
#167=VERTEX_POINT('',#482);
#168=VERTEX_POINT('',#484);
#169=VERTEX_POINT('',#487);
#170=VERTEX_POINT('',#489);
#171=VERTEX_POINT('',#492);
#172=VERTEX_POINT('',#494);
#173=VERTEX_POINT('',#497);
#174=VERTEX_POINT('',#499);
#175=VERTEX_POINT('',#502);
#176=VERTEX_POINT('',#505);
#177=VERTEX_POINT('',#508);
#178=VERTEX_POINT('',#511);
#179=VERTEX_POINT('',#514);
#180=VERTEX_POINT('',#517);
#181=VERTEX_POINT('',#520);
#182=VERTEX_POINT('',#523);
#183=VERTEX_POINT('',#528);
#184=EDGE_CURVE('',#158,#158,#132,.T.);
#185=EDGE_CURVE('',#159,#159,#133,.T.);
#186=EDGE_CURVE('',#160,#160,#134,.T.);
#187=EDGE_CURVE('',#161,#161,#135,.T.);
#188=EDGE_CURVE('',#162,#162,#136,.T.);
#189=EDGE_CURVE('',#163,#163,#137,.T.);
#190=EDGE_CURVE('',#164,#164,#138,.T.);
#191=EDGE_CURVE('',#165,#165,#139,.T.);
#192=EDGE_CURVE('',#166,#166,#140,.T.);
#193=EDGE_CURVE('',#167,#167,#141,.T.);
#194=EDGE_CURVE('',#168,#168,#142,.T.);
#195=EDGE_CURVE('',#169,#169,#143,.T.);
#196=EDGE_CURVE('',#170,#170,#144,.T.);
#197=EDGE_CURVE('',#171,#171,#145,.T.);
#198=EDGE_CURVE('',#172,#172,#146,.T.);
#199=EDGE_CURVE('',#173,#173,#147,.T.);
#200=EDGE_CURVE('',#174,#174,#148,.T.);
#201=EDGE_CURVE('',#175,#175,#149,.T.);
#202=EDGE_CURVE('',#176,#176,#150,.T.);
#203=EDGE_CURVE('',#177,#177,#151,.T.);
#204=EDGE_CURVE('',#178,#178,#152,.T.);
#205=EDGE_CURVE('',#179,#179,#153,.T.);
#206=EDGE_CURVE('',#180,#180,#154,.T.);
#207=EDGE_CURVE('',#181,#181,#155,.T.);
#208=EDGE_CURVE('',#182,#182,#156,.T.);
#209=EDGE_CURVE('',#183,#183,#157,.T.);
#210=ORIENTED_EDGE('',*,*,#184,.F.);
#211=ORIENTED_EDGE('',*,*,#185,.T.);
#212=ORIENTED_EDGE('',*,*,#186,.F.);
#213=ORIENTED_EDGE('',*,*,#187,.F.);
#214=ORIENTED_EDGE('',*,*,#188,.F.);
#215=ORIENTED_EDGE('',*,*,#189,.F.);
#216=ORIENTED_EDGE('',*,*,#190,.F.);
#217=ORIENTED_EDGE('',*,*,#191,.F.);
#218=ORIENTED_EDGE('',*,*,#192,.F.);
#219=ORIENTED_EDGE('',*,*,#193,.F.);
#220=ORIENTED_EDGE('',*,*,#194,.F.);
#221=ORIENTED_EDGE('',*,*,#195,.F.);
#222=ORIENTED_EDGE('',*,*,#196,.F.);
#223=ORIENTED_EDGE('',*,*,#197,.F.);
#224=ORIENTED_EDGE('',*,*,#198,.F.);
#225=ORIENTED_EDGE('',*,*,#199,.T.);
#226=ORIENTED_EDGE('',*,*,#200,.T.);
#227=ORIENTED_EDGE('',*,*,#201,.F.);
#228=ORIENTED_EDGE('',*,*,#199,.F.);
#229=ORIENTED_EDGE('',*,*,#200,.F.);
#230=ORIENTED_EDGE('',*,*,#187,.T.);
#231=ORIENTED_EDGE('',*,*,#189,.T.);
#232=ORIENTED_EDGE('',*,*,#191,.T.);
#233=ORIENTED_EDGE('',*,*,#193,.T.);
#234=ORIENTED_EDGE('',*,*,#195,.T.);
#235=ORIENTED_EDGE('',*,*,#197,.T.);
#236=ORIENTED_EDGE('',*,*,#202,.F.);
#237=ORIENTED_EDGE('',*,*,#203,.T.);
#238=ORIENTED_EDGE('',*,*,#201,.T.);
#239=ORIENTED_EDGE('',*,*,#203,.F.);
#240=ORIENTED_EDGE('',*,*,#188,.T.);
#241=ORIENTED_EDGE('',*,*,#190,.T.);
#242=ORIENTED_EDGE('',*,*,#192,.T.);
#243=ORIENTED_EDGE('',*,*,#194,.T.);
#244=ORIENTED_EDGE('',*,*,#196,.T.);
#245=ORIENTED_EDGE('',*,*,#198,.T.);
#246=ORIENTED_EDGE('',*,*,#204,.T.);
#247=ORIENTED_EDGE('',*,*,#205,.F.);
#248=ORIENTED_EDGE('',*,*,#184,.T.);
#249=ORIENTED_EDGE('',*,*,#206,.F.);
#250=ORIENTED_EDGE('',*,*,#205,.T.);
#251=ORIENTED_EDGE('',*,*,#207,.F.);
#252=ORIENTED_EDGE('',*,*,#206,.T.);
#253=ORIENTED_EDGE('',*,*,#208,.F.);
#254=ORIENTED_EDGE('',*,*,#207,.T.);
#255=ORIENTED_EDGE('',*,*,#204,.F.);
#256=ORIENTED_EDGE('',*,*,#208,.T.);
#257=ORIENTED_EDGE('',*,*,#185,.F.);
#258=ORIENTED_EDGE('',*,*,#202,.T.);
#259=ORIENTED_EDGE('',*,*,#186,.T.);
#260=ORIENTED_EDGE('',*,*,#209,.F.);
#261=ORIENTED_EDGE('',*,*,#209,.T.);
#262=PLANE('',#314);
#263=PLANE('',#316);
#264=PLANE('',#342);
#265=PLANE('',#346);
#266=PLANE('',#350);
#267=PLANE('',#354);
#268=PLANE('',#360);
#269=STYLED_ITEM('',(#554),#291);
#270=STYLED_ITEM('',(#555),#292);
#271=STYLED_ITEM('',(#554),#293);
#272=STYLED_ITEM('',(#554),#294);
#273=STYLED_ITEM('',(#554),#295);
#274=STYLED_ITEM('',(#554),#296);
#275=STYLED_ITEM('',(#554),#297);
#276=STYLED_ITEM('',(#554),#298);
#277=STYLED_ITEM('',(#554),#299);
#278=STYLED_ITEM('',(#554),#300);
#279=STYLED_ITEM('',(#554),#301);
#280=STYLED_ITEM('',(#554),#302);
#281=STYLED_ITEM('',(#554),#303);
#282=STYLED_ITEM('',(#554),#304);
#283=STYLED_ITEM('',(#554),#305);
#284=STYLED_ITEM('',(#554),#306);
#285=STYLED_ITEM('',(#554),#307);
#286=STYLED_ITEM('',(#554),#308);
#287=STYLED_ITEM('',(#554),#309);
#288=STYLED_ITEM('',(#554),#310);
#289=STYLED_ITEM('',(#554),#311);
#290=STYLED_ITEM('',(#553),#13);
#291=ADVANCED_FACE('',(#59),#262,.F.);
#292=ADVANCED_FACE('',(#60,#28),#263,.T.);
#293=ADVANCED_FACE('',(#61,#29),#17,.F.);
#294=ADVANCED_FACE('',(#62,#30),#18,.F.);
#295=ADVANCED_FACE('',(#63,#31),#19,.F.);
#296=ADVANCED_FACE('',(#64,#32),#20,.F.);
#297=ADVANCED_FACE('',(#65,#33),#21,.F.);
#298=ADVANCED_FACE('',(#66,#34),#22,.F.);
#299=ADVANCED_FACE('',(#67,#35),#14,.T.);
#300=ADVANCED_FACE('',(#68,#36),#23,.T.);
#301=ADVANCED_FACE('',(#69,#37,#38,#39,#40,#41,#42,#43),#264,.T.);
#302=ADVANCED_FACE('',(#70,#44),#15,.T.);
#303=ADVANCED_FACE('',(#71,#45,#46,#47,#48,#49,#50,#51),#265,.T.);
#304=ADVANCED_FACE('',(#72,#52),#24,.F.);
#305=ADVANCED_FACE('',(#73,#53),#266,.T.);
#306=ADVANCED_FACE('',(#74,#54),#25,.F.);
#307=ADVANCED_FACE('',(#75,#55),#267,.T.);
#308=ADVANCED_FACE('',(#76,#56),#16,.T.);
#309=ADVANCED_FACE('',(#77,#57),#26,.T.);
#310=ADVANCED_FACE('',(#78,#58),#27,.T.);
#311=ADVANCED_FACE('',(#79),#268,.T.);
#312=CLOSED_SHELL('',(#291,#292,#293,#294,#295,#296,#297,#298,#299,#300,
#301,#302,#303,#304,#305,#306,#307,#308,#309,#310,#311));
#313=AXIS2_PLACEMENT_3D('placement',#457,#361,#362);
#314=AXIS2_PLACEMENT_3D('',#458,#363,#364);
#315=AXIS2_PLACEMENT_3D('',#460,#365,#366);
#316=AXIS2_PLACEMENT_3D('',#461,#367,#368);
#317=AXIS2_PLACEMENT_3D('',#463,#369,#370);
#318=AXIS2_PLACEMENT_3D('',#465,#371,#372);
#319=AXIS2_PLACEMENT_3D('',#466,#373,#374);
#320=AXIS2_PLACEMENT_3D('',#468,#375,#376);
#321=AXIS2_PLACEMENT_3D('',#470,#377,#378);
#322=AXIS2_PLACEMENT_3D('',#471,#379,#380);
#323=AXIS2_PLACEMENT_3D('',#473,#381,#382);
#324=AXIS2_PLACEMENT_3D('',#475,#383,#384);
#325=AXIS2_PLACEMENT_3D('',#476,#385,#386);
#326=AXIS2_PLACEMENT_3D('',#478,#387,#388);
#327=AXIS2_PLACEMENT_3D('',#480,#389,#390);
#328=AXIS2_PLACEMENT_3D('',#481,#391,#392);
#329=AXIS2_PLACEMENT_3D('',#483,#393,#394);
#330=AXIS2_PLACEMENT_3D('',#485,#395,#396);
#331=AXIS2_PLACEMENT_3D('',#486,#397,#398);
#332=AXIS2_PLACEMENT_3D('',#488,#399,#400);
#333=AXIS2_PLACEMENT_3D('',#490,#401,#402);
#334=AXIS2_PLACEMENT_3D('',#491,#403,#404);
#335=AXIS2_PLACEMENT_3D('',#493,#405,#406);
#336=AXIS2_PLACEMENT_3D('',#495,#407,#408);
#337=AXIS2_PLACEMENT_3D('',#496,#409,#410);
#338=AXIS2_PLACEMENT_3D('',#498,#411,#412);
#339=AXIS2_PLACEMENT_3D('',#500,#413,#414);
#340=AXIS2_PLACEMENT_3D('',#501,#415,#416);
#341=AXIS2_PLACEMENT_3D('',#503,#417,#418);
#342=AXIS2_PLACEMENT_3D('',#504,#419,#420);
#343=AXIS2_PLACEMENT_3D('',#506,#421,#422);
#344=AXIS2_PLACEMENT_3D('',#507,#423,#424);
#345=AXIS2_PLACEMENT_3D('',#509,#425,#426);
#346=AXIS2_PLACEMENT_3D('',#510,#427,#428);
#347=AXIS2_PLACEMENT_3D('',#512,#429,#430);
#348=AXIS2_PLACEMENT_3D('',#513,#431,#432);
#349=AXIS2_PLACEMENT_3D('',#515,#433,#434);
#350=AXIS2_PLACEMENT_3D('',#516,#435,#436);
#351=AXIS2_PLACEMENT_3D('',#518,#437,#438);
#352=AXIS2_PLACEMENT_3D('',#519,#439,#440);
#353=AXIS2_PLACEMENT_3D('',#521,#441,#442);
#354=AXIS2_PLACEMENT_3D('',#522,#443,#444);
#355=AXIS2_PLACEMENT_3D('',#524,#445,#446);
#356=AXIS2_PLACEMENT_3D('',#525,#447,#448);
#357=AXIS2_PLACEMENT_3D('',#526,#449,#450);
#358=AXIS2_PLACEMENT_3D('',#527,#451,#452);
#359=AXIS2_PLACEMENT_3D('',#529,#453,#454);
#360=AXIS2_PLACEMENT_3D('',#530,#455,#456);
#361=DIRECTION('axis',(0.,0.,1.));
#362=DIRECTION('refdir',(1.,0.,0.));
#363=DIRECTION('center_axis',(0.,-1.,0.));
#364=DIRECTION('ref_axis',(0.,0.,-1.));
#365=DIRECTION('center_axis',(0.,-1.,0.));
#366=DIRECTION('ref_axis',(1.,0.,0.));
#367=DIRECTION('center_axis',(0.,-1.,0.));
#368=DIRECTION('ref_axis',(-1.,0.,0.));
#369=DIRECTION('center_axis',(0.,-1.,0.));
#370=DIRECTION('ref_axis',(-1.,0.,0.));
#371=DIRECTION('center_axis',(0.,-1.,0.));
#372=DIRECTION('ref_axis',(1.,0.,0.));
#373=DIRECTION('center_axis',(0.,-1.,0.));
#374=DIRECTION('ref_axis',(-0.499999999999999,0.,0.866025403784439));
#375=DIRECTION('center_axis',(0.,1.,0.));
#376=DIRECTION('ref_axis',(-0.499999999999999,0.,0.866025403784439));
#377=DIRECTION('center_axis',(0.,-1.,0.));
#378=DIRECTION('ref_axis',(-0.499999999999999,0.,0.866025403784439));
#379=DIRECTION('center_axis',(0.,-1.,0.));
#380=DIRECTION('ref_axis',(0.5,0.,0.866025403784438));
#381=DIRECTION('center_axis',(0.,1.,0.));
#382=DIRECTION('ref_axis',(0.5,0.,0.866025403784438));
#383=DIRECTION('center_axis',(0.,-1.,0.));
#384=DIRECTION('ref_axis',(0.5,0.,0.866025403784438));
#385=DIRECTION('center_axis',(0.,-1.,0.));
#386=DIRECTION('ref_axis',(1.,0.,-1.58603289232165E-16));
#387=DIRECTION('center_axis',(0.,1.,0.));
#388=DIRECTION('ref_axis',(1.,0.,-1.58603289232165E-16));
#389=DIRECTION('center_axis',(0.,-1.,0.));
#390=DIRECTION('ref_axis',(1.,0.,-1.58603289232165E-16));
#391=DIRECTION('center_axis',(0.,-1.,0.));
#392=DIRECTION('ref_axis',(0.5,0.,-0.866025403784439));
#393=DIRECTION('center_axis',(0.,1.,0.));
#394=DIRECTION('ref_axis',(0.5,0.,-0.866025403784439));
#395=DIRECTION('center_axis',(0.,-1.,0.));
#396=DIRECTION('ref_axis',(0.5,0.,-0.866025403784439));
#397=DIRECTION('center_axis',(0.,-1.,0.));
#398=DIRECTION('ref_axis',(-0.5,0.,-0.866025403784439));
#399=DIRECTION('center_axis',(0.,1.,0.));
#400=DIRECTION('ref_axis',(-0.5,0.,-0.866025403784439));
#401=DIRECTION('center_axis',(0.,-1.,0.));
#402=DIRECTION('ref_axis',(-0.5,0.,-0.866025403784439));
#403=DIRECTION('center_axis',(0.,-1.,0.));
#404=DIRECTION('ref_axis',(-1.,0.,0.));
#405=DIRECTION('center_axis',(0.,1.,0.));
#406=DIRECTION('ref_axis',(-1.,0.,0.));
#407=DIRECTION('center_axis',(0.,-1.,0.));
#408=DIRECTION('ref_axis',(-1.,0.,0.));
#409=DIRECTION('center_axis',(0.,1.,0.));
#410=DIRECTION('ref_axis',(-1.,0.,0.));
#411=DIRECTION('center_axis',(0.,-1.,0.));
#412=DIRECTION('ref_axis',(-1.,0.,0.));
#413=DIRECTION('center_axis',(0.,1.,0.));
#414=DIRECTION('ref_axis',(-1.,0.,0.));
#415=DIRECTION('center_axis',(0.,-1.,0.));
#416=DIRECTION('ref_axis',(1.,0.,0.));
#417=DIRECTION('center_axis',(0.,1.,0.));
#418=DIRECTION('ref_axis',(-1.,0.,0.));
#419=DIRECTION('center_axis',(0.,-1.,0.));
#420=DIRECTION('ref_axis',(0.,0.,-1.));
#421=DIRECTION('center_axis',(0.,-1.,0.));
#422=DIRECTION('ref_axis',(1.,0.,0.));
#423=DIRECTION('center_axis',(0.,-1.,0.));
#424=DIRECTION('ref_axis',(-1.,0.,0.));
#425=DIRECTION('center_axis',(0.,-1.,0.));
#426=DIRECTION('ref_axis',(-1.,0.,0.));
#427=DIRECTION('center_axis',(0.,1.,0.));
#428=DIRECTION('ref_axis',(0.,0.,1.));
#429=DIRECTION('center_axis',(0.,-1.,0.));
#430=DIRECTION('ref_axis',(1.,0.,0.));
#431=DIRECTION('center_axis',(0.,-1.,0.));
#432=DIRECTION('ref_axis',(1.,0.,0.));
#433=DIRECTION('center_axis',(0.,-1.,0.));
#434=DIRECTION('ref_axis',(1.,0.,0.));
#435=DIRECTION('center_axis',(0.,1.,0.));
#436=DIRECTION('ref_axis',(0.,0.,1.));
#437=DIRECTION('center_axis',(0.,-1.,0.));
#438=DIRECTION('ref_axis',(1.,0.,0.));
#439=DIRECTION('center_axis',(0.,-1.,0.));
#440=DIRECTION('ref_axis',(1.,0.,0.));
#441=DIRECTION('center_axis',(0.,-1.,0.));
#442=DIRECTION('ref_axis',(1.,0.,0.));
#443=DIRECTION('center_axis',(0.,1.,0.));
#444=DIRECTION('ref_axis',(0.,0.,1.));
#445=DIRECTION('center_axis',(0.,-1.,0.));
#446=DIRECTION('ref_axis',(1.,0.,0.));
#447=DIRECTION('center_axis',(0.,-1.,0.));
#448=DIRECTION('ref_axis',(1.,0.,0.));
#449=DIRECTION('center_axis',(0.,-1.,0.));
#450=DIRECTION('ref_axis',(1.,0.,0.));
#451=DIRECTION('center_axis',(0.,-1.,0.));
#452=DIRECTION('ref_axis',(1.,0.,0.));
#453=DIRECTION('center_axis',(0.,-1.,0.));
#454=DIRECTION('ref_axis',(1.,0.,0.));
#455=DIRECTION('center_axis',(0.,-1.,0.));
#456=DIRECTION('ref_axis',(0.,0.,-1.));
#457=CARTESIAN_POINT('',(0.,0.,0.));
#458=CARTESIAN_POINT('Origin',(0.,1.62,0.));
#459=CARTESIAN_POINT('',(0.275,1.62,0.));
#460=CARTESIAN_POINT('Origin',(0.,1.62,0.));
#461=CARTESIAN_POINT('Origin',(0.,0.45,0.));
#462=CARTESIAN_POINT('',(2.95,0.45,-3.61270805748469E-16));
#463=CARTESIAN_POINT('Origin',(0.,0.45,0.));
#464=CARTESIAN_POINT('',(2.4,0.45,-2.93915231795365E-16));
#465=CARTESIAN_POINT('Origin',(0.,0.45,0.));
#466=CARTESIAN_POINT('Origin',(-3.03108891324554,1.65,-1.75));
#467=CARTESIAN_POINT('',(-2.85608891324554,1.05,-2.05310889132455));
#468=CARTESIAN_POINT('Origin',(-3.03108891324554,1.05,-1.75));
#469=CARTESIAN_POINT('',(-2.85608891324554,1.65,-2.05310889132455));
#470=CARTESIAN_POINT('Origin',(-3.03108891324554,1.65,-1.75));
#471=CARTESIAN_POINT('Origin',(-3.03108891324553,1.65,1.75));
#472=CARTESIAN_POINT('',(-3.20608891324554,1.05,1.44689110867545));
#473=CARTESIAN_POINT('Origin',(-3.03108891324553,1.05,1.75));
#474=CARTESIAN_POINT('',(-3.20608891324553,1.65,1.44689110867545));
#475=CARTESIAN_POINT('Origin',(-3.03108891324553,1.65,1.75));
#476=CARTESIAN_POINT('Origin',(6.66133814775094E-16,1.65,3.5));
#477=CARTESIAN_POINT('',(-0.349999999999999,1.05,3.5));
#478=CARTESIAN_POINT('Origin',(6.66133814775094E-16,1.05,3.5));
#479=CARTESIAN_POINT('',(-0.349999999999999,1.65,3.5));
#480=CARTESIAN_POINT('Origin',(6.66133814775094E-16,1.65,3.5));
#481=CARTESIAN_POINT('Origin',(3.03108891324554,1.65,1.75));
#482=CARTESIAN_POINT('',(2.85608891324554,1.05,2.05310889132455));
#483=CARTESIAN_POINT('Origin',(3.03108891324554,1.05,1.75));
#484=CARTESIAN_POINT('',(2.85608891324554,1.65,2.05310889132455));
#485=CARTESIAN_POINT('Origin',(3.03108891324554,1.65,1.75));
#486=CARTESIAN_POINT('Origin',(3.03108891324554,1.65,-1.75));
#487=CARTESIAN_POINT('',(3.20608891324554,1.05,-1.44689110867545));
#488=CARTESIAN_POINT('Origin',(3.03108891324554,1.05,-1.75));
#489=CARTESIAN_POINT('',(3.20608891324554,1.65,-1.44689110867545));
#490=CARTESIAN_POINT('Origin',(3.03108891324554,1.65,-1.75));
#491=CARTESIAN_POINT('Origin',(0.,1.65,-3.5));
#492=CARTESIAN_POINT('',(0.35,1.05,-3.5));
#493=CARTESIAN_POINT('Origin',(0.,1.05,-3.5));
#494=CARTESIAN_POINT('',(0.35,1.65,-3.5));
#495=CARTESIAN_POINT('Origin',(0.,1.65,-3.5));
#496=CARTESIAN_POINT('Origin',(0.,1.075,0.));
#497=CARTESIAN_POINT('',(4.25,1.1,5.20474889637625E-16));
#498=CARTESIAN_POINT('Origin',(0.,1.1,0.));
#499=CARTESIAN_POINT('',(4.2,1.05,-5.14351655641888E-16));
#500=CARTESIAN_POINT('Origin',(0.,1.05,0.));
#501=CARTESIAN_POINT('Origin',(0.,1.35,0.));
#502=CARTESIAN_POINT('',(4.25,1.6,-5.20474889637625E-16));
#503=CARTESIAN_POINT('Origin',(0.,1.6,0.));
#504=CARTESIAN_POINT('Origin',(3.6,1.05,0.));
#505=CARTESIAN_POINT('',(2.95,1.05,0.));
#506=CARTESIAN_POINT('Origin',(0.,1.05,0.));
#507=CARTESIAN_POINT('Origin',(0.,1.625,0.));
#508=CARTESIAN_POINT('',(4.2,1.65,5.14351655641888E-16));
#509=CARTESIAN_POINT('Origin',(0.,1.65,0.));
#510=CARTESIAN_POINT('Origin',(3.375,1.65,0.));
#511=CARTESIAN_POINT('',(2.5,1.65,0.));
#512=CARTESIAN_POINT('Origin',(0.,1.65,0.));
#513=CARTESIAN_POINT('Origin',(0.,1.67,0.));
#514=CARTESIAN_POINT('',(0.275,1.72,0.));
#515=CARTESIAN_POINT('Origin',(0.,1.72,0.));
#516=CARTESIAN_POINT('Origin',(0.39,1.72,0.));
#517=CARTESIAN_POINT('',(0.505,1.72,0.));
#518=CARTESIAN_POINT('Origin',(0.,1.72,0.));
#519=CARTESIAN_POINT('Origin',(0.,1.76,0.));
#520=CARTESIAN_POINT('',(0.505,1.8,0.));
#521=CARTESIAN_POINT('Origin',(0.,1.8,0.));
#522=CARTESIAN_POINT('Origin',(0.8275,1.8,0.));
#523=CARTESIAN_POINT('',(1.15,1.8,0.));
#524=CARTESIAN_POINT('Origin',(0.,1.8,0.));
#525=CARTESIAN_POINT('Origin',(0.,1.725,0.));
#526=CARTESIAN_POINT('Origin',(0.,0.85,0.));
#527=CARTESIAN_POINT('Origin',(0.,0.325,0.));
#528=CARTESIAN_POINT('',(2.4,0.,0.));
#529=CARTESIAN_POINT('Origin',(0.,0.,0.));
#530=CARTESIAN_POINT('Origin',(2.325,0.,0.));
#531=UNCERTAINTY_MEASURE_WITH_UNIT(LENGTH_MEASURE(0.001),#535,
'DISTANCE_ACCURACY_VALUE',
'Maximum model space distance between geometric entities at asserted c
onnectivities');
#532=UNCERTAINTY_MEASURE_WITH_UNIT(LENGTH_MEASURE(1.E-6),#536,
'DISTANCE_ACCURACY_VALUE',
'Maximum model space distance between geometric entities at asserted c
onnectivities');
#533=(
GEOMETRIC_REPRESENTATION_CONTEXT(3)
GLOBAL_UNCERTAINTY_ASSIGNED_CONTEXT((#531))
GLOBAL_UNIT_ASSIGNED_CONTEXT((#535,#539,#537))
REPRESENTATION_CONTEXT('','3D')
);
#534=(
GEOMETRIC_REPRESENTATION_CONTEXT(3)
GLOBAL_UNCERTAINTY_ASSIGNED_CONTEXT((#532))
GLOBAL_UNIT_ASSIGNED_CONTEXT((#536,#539,#537))
REPRESENTATION_CONTEXT('','3D')
);
#535=(
LENGTH_UNIT()
NAMED_UNIT(*)
SI_UNIT(.CENTI.,.METRE.)
);
#536=(
LENGTH_UNIT()
NAMED_UNIT(*)
SI_UNIT(.MILLI.,.METRE.)
);
#537=(
NAMED_UNIT(*)
SI_UNIT($,.STERADIAN.)
SOLID_ANGLE_UNIT()
);
#538=DIMENSIONAL_EXPONENTS(0.,0.,0.,0.,0.,0.,0.);
#539=(
CONVERSION_BASED_UNIT('degree',#541)
NAMED_UNIT(#538)
PLANE_ANGLE_UNIT()
);
#540=(
NAMED_UNIT(*)
PLANE_ANGLE_UNIT()
SI_UNIT($,.RADIAN.)
);
#541=PLANE_ANGLE_MEASURE_WITH_UNIT(PLANE_ANGLE_MEASURE(0.01745329252),#540);
#542=SHAPE_DEFINITION_REPRESENTATION(#543,#544);
#543=PRODUCT_DEFINITION_SHAPE('',$,#546);
#544=SHAPE_REPRESENTATION('',(#313),#533);
#545=PRODUCT_DEFINITION_CONTEXT('part definition',#550,'design');
#546=PRODUCT_DEFINITION('31347W','31347W',#547,#545);
#547=PRODUCT_DEFINITION_FORMATION('',$,#552);
#548=PRODUCT_RELATED_PRODUCT_CATEGORY('31347W','31347W',(#552));
#549=APPLICATION_PROTOCOL_DEFINITION('international standard',
'automotive_design',2009,#550);
#550=APPLICATION_CONTEXT(
'Core Data for Automotive Mechanical Design Process');
#551=PRODUCT_CONTEXT('part definition',#550,'mechanical');
#552=PRODUCT('31347W','31347W',$,(#551));
#553=PRESENTATION_STYLE_ASSIGNMENT((#556));
#554=PRESENTATION_STYLE_ASSIGNMENT((#557));
#555=PRESENTATION_STYLE_ASSIGNMENT((#558));
#556=SURFACE_STYLE_USAGE(.BOTH.,#559);
#557=SURFACE_STYLE_USAGE(.BOTH.,#560);
#558=SURFACE_STYLE_USAGE(.BOTH.,#561);
#559=SURFACE_SIDE_STYLE($,(#562));
#560=SURFACE_SIDE_STYLE($,(#563));
#561=SURFACE_SIDE_STYLE($,(#564));
#562=SURFACE_STYLE_FILL_AREA(#565);
#563=SURFACE_STYLE_FILL_AREA(#566);
#564=SURFACE_STYLE_FILL_AREA(#567);
#565=FILL_AREA_STYLE($,(#568));
#566=FILL_AREA_STYLE($,(#569));
#567=FILL_AREA_STYLE($,(#570));
#568=FILL_AREA_STYLE_COLOUR($,#571);
#569=FILL_AREA_STYLE_COLOUR($,#572);
#570=FILL_AREA_STYLE_COLOUR($,#573);
#571=COLOUR_RGB('',0.749019607843137,0.749019607843137,0.749019607843137);
#572=COLOUR_RGB('',0.63921568627451,0.63921568627451,0.686274509803922);
#573=COLOUR_RGB('',0.250980392156863,0.250980392156863,0.250980392156863);
ENDSEC;
END-ISO-10303-21;
