ISO-10303-21;
HEADER;
/* Generated by software containing ST-Developer
 * from STEP Tools, Inc. (www.steptools.com) 
 */

FILE_DESCRIPTION(
/* description */ (''),
/* implementation_level */ '2;1');

FILE_NAME(
/* name */ 
'J:\\AM_Zeichnung\\Inventor\\PROJEKT_STAMMORDNER\\Importierte Komponen
ten\\31333W\\31402W.stp',
/* time_stamp */ '2018-02-06T10:07:37+01:00',
/* author */ ('acgl'),
/* organization */ (''),
/* preprocessor_version */ 'ST-DEVELOPER v15.6',
/* originating_system */ 'Autodesk Inventor 2015',
/* authorisation */ '');

FILE_SCHEMA (('AUTOMOTIVE_DESIGN { 1 0 10303 214 3 1 1 }'));
ENDSEC;

DATA;
#10=MECHANICAL_DESIGN_GEOMETRIC_PRESENTATION_REPRESENTATION('',(#292,#293,
#294,#291,#300,#303,#295,#298,#301,#299,#304,#302,#296,#297,#313,#315,#316,
#305,#307,#309,#311,#312,#308,#310,#314,#306),#590);
#11=SHAPE_REPRESENTATION_RELATIONSHIP('SRR','None',#600,#12);
#12=ADVANCED_BREP_SHAPE_REPRESENTATION($,(#13),#589);
#13=MANIFOLD_SOLID_BREP('Volumenk\X\F6rper1',#342);
#14=CONICAL_SURFACE('',#348,1.005,45.);
#15=CONICAL_SURFACE('',#359,1.005,45.);
#16=CONICAL_SURFACE('',#363,1.005,45.);
#17=CONICAL_SURFACE('',#367,1.005,45.);
#18=CONICAL_SURFACE('',#371,1.005,45.);
#19=CONICAL_SURFACE('',#379,1.005,45.);
#20=CONICAL_SURFACE('',#380,1.005,45.);
#21=CONICAL_SURFACE('',#381,1.005,45.);
#22=CONICAL_SURFACE('',#382,9.475,44.9999999999994);
#23=CONICAL_SURFACE('',#386,9.475,45.);
#24=PLANE('',#347);
#25=PLANE('',#351);
#26=PLANE('',#373);
#27=PLANE('',#390);
#28=PLANE('',#393);
#29=PLANE('',#396);
#30=FACE_BOUND('',#87,.T.);
#31=FACE_BOUND('',#90,.T.);
#32=FACE_BOUND('',#92,.T.);
#33=FACE_BOUND('',#93,.T.);
#34=FACE_BOUND('',#94,.T.);
#35=FACE_BOUND('',#95,.T.);
#36=FACE_BOUND('',#96,.T.);
#37=FACE_BOUND('',#98,.T.);
#38=FACE_BOUND('',#100,.T.);
#39=FACE_BOUND('',#102,.T.);
#40=FACE_BOUND('',#104,.T.);
#41=FACE_BOUND('',#106,.T.);
#42=FACE_BOUND('',#108,.T.);
#43=FACE_BOUND('',#110,.T.);
#44=FACE_BOUND('',#112,.T.);
#45=FACE_BOUND('',#114,.T.);
#46=FACE_BOUND('',#115,.T.);
#47=FACE_BOUND('',#116,.T.);
#48=FACE_BOUND('',#117,.T.);
#49=FACE_BOUND('',#118,.T.);
#50=FACE_BOUND('',#120,.T.);
#51=FACE_BOUND('',#122,.T.);
#52=FACE_BOUND('',#124,.T.);
#53=FACE_BOUND('',#126,.T.);
#54=FACE_BOUND('',#128,.T.);
#55=FACE_BOUND('',#130,.T.);
#56=FACE_BOUND('',#132,.T.);
#57=FACE_BOUND('',#134,.T.);
#58=FACE_BOUND('',#136,.T.);
#59=FACE_BOUND('',#139,.T.);
#60=FACE_BOUND('',#141,.T.);
#61=FACE_OUTER_BOUND('',#86,.T.);
#62=FACE_OUTER_BOUND('',#88,.T.);
#63=FACE_OUTER_BOUND('',#89,.T.);
#64=FACE_OUTER_BOUND('',#91,.T.);
#65=FACE_OUTER_BOUND('',#97,.T.);
#66=FACE_OUTER_BOUND('',#99,.T.);
#67=FACE_OUTER_BOUND('',#101,.T.);
#68=FACE_OUTER_BOUND('',#103,.T.);
#69=FACE_OUTER_BOUND('',#105,.T.);
#70=FACE_OUTER_BOUND('',#107,.T.);
#71=FACE_OUTER_BOUND('',#109,.T.);
#72=FACE_OUTER_BOUND('',#111,.T.);
#73=FACE_OUTER_BOUND('',#113,.T.);
#74=FACE_OUTER_BOUND('',#119,.T.);
#75=FACE_OUTER_BOUND('',#121,.T.);
#76=FACE_OUTER_BOUND('',#123,.T.);
#77=FACE_OUTER_BOUND('',#125,.T.);
#78=FACE_OUTER_BOUND('',#127,.T.);
#79=FACE_OUTER_BOUND('',#129,.T.);
#80=FACE_OUTER_BOUND('',#131,.T.);
#81=FACE_OUTER_BOUND('',#133,.T.);
#82=FACE_OUTER_BOUND('',#135,.T.);
#83=FACE_OUTER_BOUND('',#137,.T.);
#84=FACE_OUTER_BOUND('',#138,.T.);
#85=FACE_OUTER_BOUND('',#140,.T.);
#86=EDGE_LOOP('',(#226));
#87=EDGE_LOOP('',(#227));
#88=EDGE_LOOP('',(#228));
#89=EDGE_LOOP('',(#229));
#90=EDGE_LOOP('',(#230));
#91=EDGE_LOOP('',(#231));
#92=EDGE_LOOP('',(#232));
#93=EDGE_LOOP('',(#233));
#94=EDGE_LOOP('',(#234));
#95=EDGE_LOOP('',(#235));
#96=EDGE_LOOP('',(#236));
#97=EDGE_LOOP('',(#237));
#98=EDGE_LOOP('',(#238));
#99=EDGE_LOOP('',(#239));
#100=EDGE_LOOP('',(#240));
#101=EDGE_LOOP('',(#241));
#102=EDGE_LOOP('',(#242));
#103=EDGE_LOOP('',(#243));
#104=EDGE_LOOP('',(#244));
#105=EDGE_LOOP('',(#245));
#106=EDGE_LOOP('',(#246));
#107=EDGE_LOOP('',(#247));
#108=EDGE_LOOP('',(#248));
#109=EDGE_LOOP('',(#249));
#110=EDGE_LOOP('',(#250));
#111=EDGE_LOOP('',(#251));
#112=EDGE_LOOP('',(#252));
#113=EDGE_LOOP('',(#253));
#114=EDGE_LOOP('',(#254));
#115=EDGE_LOOP('',(#255));
#116=EDGE_LOOP('',(#256));
#117=EDGE_LOOP('',(#257));
#118=EDGE_LOOP('',(#258));
#119=EDGE_LOOP('',(#259));
#120=EDGE_LOOP('',(#260));
#121=EDGE_LOOP('',(#261));
#122=EDGE_LOOP('',(#262));
#123=EDGE_LOOP('',(#263));
#124=EDGE_LOOP('',(#264));
#125=EDGE_LOOP('',(#265));
#126=EDGE_LOOP('',(#266));
#127=EDGE_LOOP('',(#267));
#128=EDGE_LOOP('',(#268));
#129=EDGE_LOOP('',(#269));
#130=EDGE_LOOP('',(#270));
#131=EDGE_LOOP('',(#271));
#132=EDGE_LOOP('',(#272));
#133=EDGE_LOOP('',(#273));
#134=EDGE_LOOP('',(#274));
#135=EDGE_LOOP('',(#275));
#136=EDGE_LOOP('',(#276));
#137=EDGE_LOOP('',(#277));
#138=EDGE_LOOP('',(#278));
#139=EDGE_LOOP('',(#279));
#140=EDGE_LOOP('',(#280));
#141=EDGE_LOOP('',(#281));
#142=CIRCLE('',#345,2.4);
#143=CIRCLE('',#346,2.4);
#144=CIRCLE('',#349,0.955);
#145=CIRCLE('',#350,1.055);
#146=CIRCLE('',#352,9.425);
#147=CIRCLE('',#353,1.055);
#148=CIRCLE('',#354,1.055);
#149=CIRCLE('',#355,0.505);
#150=CIRCLE('',#356,1.055);
#151=CIRCLE('',#358,0.955);
#152=CIRCLE('',#360,0.955);
#153=CIRCLE('',#362,0.955);
#154=CIRCLE('',#364,0.955);
#155=CIRCLE('',#366,0.955);
#156=CIRCLE('',#368,0.955);
#157=CIRCLE('',#370,0.955);
#158=CIRCLE('',#372,1.055);
#159=CIRCLE('',#374,9.425);
#160=CIRCLE('',#375,1.055);
#161=CIRCLE('',#376,1.055);
#162=CIRCLE('',#377,6.35);
#163=CIRCLE('',#378,1.055);
#164=CIRCLE('',#383,9.525);
#165=CIRCLE('',#385,9.525);
#166=CIRCLE('',#388,0.275);
#167=CIRCLE('',#389,0.275);
#168=CIRCLE('',#391,0.505);
#169=CIRCLE('',#395,6.35);
#170=VERTEX_POINT('',#507);
#171=VERTEX_POINT('',#509);
#172=VERTEX_POINT('',#513);
#173=VERTEX_POINT('',#515);
#174=VERTEX_POINT('',#518);
#175=VERTEX_POINT('',#520);
#176=VERTEX_POINT('',#522);
#177=VERTEX_POINT('',#524);
#178=VERTEX_POINT('',#526);
#179=VERTEX_POINT('',#529);
#180=VERTEX_POINT('',#532);
#181=VERTEX_POINT('',#535);
#182=VERTEX_POINT('',#538);
#183=VERTEX_POINT('',#541);
#184=VERTEX_POINT('',#544);
#185=VERTEX_POINT('',#547);
#186=VERTEX_POINT('',#550);
#187=VERTEX_POINT('',#553);
#188=VERTEX_POINT('',#555);
#189=VERTEX_POINT('',#557);
#190=VERTEX_POINT('',#559);
#191=VERTEX_POINT('',#561);
#192=VERTEX_POINT('',#567);
#193=VERTEX_POINT('',#570);
#194=VERTEX_POINT('',#574);
#195=VERTEX_POINT('',#576);
#196=VERTEX_POINT('',#579);
#197=VERTEX_POINT('',#584);
#198=EDGE_CURVE('',#170,#170,#142,.T.);
#199=EDGE_CURVE('',#171,#171,#143,.T.);
#200=EDGE_CURVE('',#172,#172,#144,.T.);
#201=EDGE_CURVE('',#173,#173,#145,.T.);
#202=EDGE_CURVE('',#174,#174,#146,.T.);
#203=EDGE_CURVE('',#175,#175,#147,.T.);
#204=EDGE_CURVE('',#176,#176,#148,.T.);
#205=EDGE_CURVE('',#177,#177,#149,.T.);
#206=EDGE_CURVE('',#178,#178,#150,.T.);
#207=EDGE_CURVE('',#179,#179,#151,.T.);
#208=EDGE_CURVE('',#180,#180,#152,.T.);
#209=EDGE_CURVE('',#181,#181,#153,.T.);
#210=EDGE_CURVE('',#182,#182,#154,.T.);
#211=EDGE_CURVE('',#183,#183,#155,.T.);
#212=EDGE_CURVE('',#184,#184,#156,.T.);
#213=EDGE_CURVE('',#185,#185,#157,.T.);
#214=EDGE_CURVE('',#186,#186,#158,.T.);
#215=EDGE_CURVE('',#187,#187,#159,.T.);
#216=EDGE_CURVE('',#188,#188,#160,.T.);
#217=EDGE_CURVE('',#189,#189,#161,.T.);
#218=EDGE_CURVE('',#190,#190,#162,.T.);
#219=EDGE_CURVE('',#191,#191,#163,.T.);
#220=EDGE_CURVE('',#192,#192,#164,.T.);
#221=EDGE_CURVE('',#193,#193,#165,.T.);
#222=EDGE_CURVE('',#194,#194,#166,.T.);
#223=EDGE_CURVE('',#195,#195,#167,.T.);
#224=EDGE_CURVE('',#196,#196,#168,.T.);
#225=EDGE_CURVE('',#197,#197,#169,.T.);
#226=ORIENTED_EDGE('',*,*,#198,.F.);
#227=ORIENTED_EDGE('',*,*,#199,.F.);
#228=ORIENTED_EDGE('',*,*,#198,.T.);
#229=ORIENTED_EDGE('',*,*,#200,.T.);
#230=ORIENTED_EDGE('',*,*,#201,.T.);
#231=ORIENTED_EDGE('',*,*,#202,.F.);
#232=ORIENTED_EDGE('',*,*,#203,.F.);
#233=ORIENTED_EDGE('',*,*,#204,.F.);
#234=ORIENTED_EDGE('',*,*,#205,.T.);
#235=ORIENTED_EDGE('',*,*,#206,.F.);
#236=ORIENTED_EDGE('',*,*,#201,.F.);
#237=ORIENTED_EDGE('',*,*,#207,.F.);
#238=ORIENTED_EDGE('',*,*,#200,.F.);
#239=ORIENTED_EDGE('',*,*,#208,.T.);
#240=ORIENTED_EDGE('',*,*,#203,.T.);
#241=ORIENTED_EDGE('',*,*,#209,.F.);
#242=ORIENTED_EDGE('',*,*,#208,.F.);
#243=ORIENTED_EDGE('',*,*,#210,.T.);
#244=ORIENTED_EDGE('',*,*,#206,.T.);
#245=ORIENTED_EDGE('',*,*,#211,.F.);
#246=ORIENTED_EDGE('',*,*,#210,.F.);
#247=ORIENTED_EDGE('',*,*,#212,.T.);
#248=ORIENTED_EDGE('',*,*,#204,.T.);
#249=ORIENTED_EDGE('',*,*,#213,.F.);
#250=ORIENTED_EDGE('',*,*,#212,.F.);
#251=ORIENTED_EDGE('',*,*,#213,.T.);
#252=ORIENTED_EDGE('',*,*,#214,.T.);
#253=ORIENTED_EDGE('',*,*,#215,.F.);
#254=ORIENTED_EDGE('',*,*,#216,.F.);
#255=ORIENTED_EDGE('',*,*,#217,.F.);
#256=ORIENTED_EDGE('',*,*,#218,.F.);
#257=ORIENTED_EDGE('',*,*,#219,.F.);
#258=ORIENTED_EDGE('',*,*,#214,.F.);
#259=ORIENTED_EDGE('',*,*,#211,.T.);
#260=ORIENTED_EDGE('',*,*,#216,.T.);
#261=ORIENTED_EDGE('',*,*,#209,.T.);
#262=ORIENTED_EDGE('',*,*,#219,.T.);
#263=ORIENTED_EDGE('',*,*,#207,.T.);
#264=ORIENTED_EDGE('',*,*,#217,.T.);
#265=ORIENTED_EDGE('',*,*,#220,.T.);
#266=ORIENTED_EDGE('',*,*,#215,.T.);
#267=ORIENTED_EDGE('',*,*,#221,.F.);
#268=ORIENTED_EDGE('',*,*,#220,.F.);
#269=ORIENTED_EDGE('',*,*,#202,.T.);
#270=ORIENTED_EDGE('',*,*,#221,.T.);
#271=ORIENTED_EDGE('',*,*,#222,.T.);
#272=ORIENTED_EDGE('',*,*,#223,.F.);
#273=ORIENTED_EDGE('',*,*,#224,.T.);
#274=ORIENTED_EDGE('',*,*,#222,.F.);
#275=ORIENTED_EDGE('',*,*,#205,.F.);
#276=ORIENTED_EDGE('',*,*,#224,.F.);
#277=ORIENTED_EDGE('',*,*,#223,.T.);
#278=ORIENTED_EDGE('',*,*,#225,.F.);
#279=ORIENTED_EDGE('',*,*,#218,.T.);
#280=ORIENTED_EDGE('',*,*,#225,.T.);
#281=ORIENTED_EDGE('',*,*,#199,.T.);
#282=CYLINDRICAL_SURFACE('',#344,2.4);
#283=CYLINDRICAL_SURFACE('',#357,0.955);
#284=CYLINDRICAL_SURFACE('',#361,0.955);
#285=CYLINDRICAL_SURFACE('',#365,0.955);
#286=CYLINDRICAL_SURFACE('',#369,0.955);
#287=CYLINDRICAL_SURFACE('',#384,9.525);
#288=CYLINDRICAL_SURFACE('',#387,0.275);
#289=CYLINDRICAL_SURFACE('',#392,0.505);
#290=CYLINDRICAL_SURFACE('',#394,6.35);
#291=STYLED_ITEM('',(#610),#317);
#292=STYLED_ITEM('',(#610),#318);
#293=STYLED_ITEM('',(#611),#319);
#294=STYLED_ITEM('',(#611),#320);
#295=STYLED_ITEM('',(#611),#321);
#296=STYLED_ITEM('',(#611),#322);
#297=STYLED_ITEM('',(#611),#323);
#298=STYLED_ITEM('',(#611),#324);
#299=STYLED_ITEM('',(#611),#325);
#300=STYLED_ITEM('',(#611),#326);
#301=STYLED_ITEM('',(#611),#327);
#302=STYLED_ITEM('',(#611),#328);
#303=STYLED_ITEM('',(#611),#329);
#304=STYLED_ITEM('',(#611),#330);
#305=STYLED_ITEM('',(#611),#331);
#306=STYLED_ITEM('',(#611),#332);
#307=STYLED_ITEM('',(#611),#333);
#308=STYLED_ITEM('',(#611),#334);
#309=STYLED_ITEM('',(#611),#335);
#310=STYLED_ITEM('',(#611),#336);
#311=STYLED_ITEM('',(#611),#337);
#312=STYLED_ITEM('',(#611),#338);
#313=STYLED_ITEM('',(#611),#339);
#314=STYLED_ITEM('',(#611),#340);
#315=STYLED_ITEM('',(#611),#341);
#316=STYLED_ITEM('',(#609),#13);
#317=ADVANCED_FACE('',(#61,#30),#282,.T.);
#318=ADVANCED_FACE('',(#62),#24,.T.);
#319=ADVANCED_FACE('',(#63,#31),#14,.F.);
#320=ADVANCED_FACE('',(#64,#32,#33,#34,#35,#36),#25,.T.);
#321=ADVANCED_FACE('',(#65,#37),#283,.F.);
#322=ADVANCED_FACE('',(#66,#38),#15,.F.);
#323=ADVANCED_FACE('',(#67,#39),#284,.F.);
#324=ADVANCED_FACE('',(#68,#40),#16,.F.);
#325=ADVANCED_FACE('',(#69,#41),#285,.F.);
#326=ADVANCED_FACE('',(#70,#42),#17,.F.);
#327=ADVANCED_FACE('',(#71,#43),#286,.F.);
#328=ADVANCED_FACE('',(#72,#44),#18,.F.);
#329=ADVANCED_FACE('',(#73,#45,#46,#47,#48,#49),#26,.T.);
#330=ADVANCED_FACE('',(#74,#50),#19,.F.);
#331=ADVANCED_FACE('',(#75,#51),#20,.F.);
#332=ADVANCED_FACE('',(#76,#52),#21,.F.);
#333=ADVANCED_FACE('',(#77,#53),#22,.T.);
#334=ADVANCED_FACE('',(#78,#54),#287,.T.);
#335=ADVANCED_FACE('',(#79,#55),#23,.T.);
#336=ADVANCED_FACE('',(#80,#56),#288,.F.);
#337=ADVANCED_FACE('',(#81,#57),#27,.F.);
#338=ADVANCED_FACE('',(#82,#58),#289,.F.);
#339=ADVANCED_FACE('',(#83),#28,.F.);
#340=ADVANCED_FACE('',(#84,#59),#290,.T.);
#341=ADVANCED_FACE('',(#85,#60),#29,.T.);
#342=CLOSED_SHELL('',(#317,#318,#319,#320,#321,#322,#323,#324,#325,#326,
#327,#328,#329,#330,#331,#332,#333,#334,#335,#336,#337,#338,#339,#340,#341));
#343=AXIS2_PLACEMENT_3D('placement',#505,#397,#398);
#344=AXIS2_PLACEMENT_3D('',#506,#399,#400);
#345=AXIS2_PLACEMENT_3D('',#508,#401,#402);
#346=AXIS2_PLACEMENT_3D('',#510,#403,#404);
#347=AXIS2_PLACEMENT_3D('',#511,#405,#406);
#348=AXIS2_PLACEMENT_3D('',#512,#407,#408);
#349=AXIS2_PLACEMENT_3D('',#514,#409,#410);
#350=AXIS2_PLACEMENT_3D('',#516,#411,#412);
#351=AXIS2_PLACEMENT_3D('',#517,#413,#414);
#352=AXIS2_PLACEMENT_3D('',#519,#415,#416);
#353=AXIS2_PLACEMENT_3D('',#521,#417,#418);
#354=AXIS2_PLACEMENT_3D('',#523,#419,#420);
#355=AXIS2_PLACEMENT_3D('',#525,#421,#422);
#356=AXIS2_PLACEMENT_3D('',#527,#423,#424);
#357=AXIS2_PLACEMENT_3D('',#528,#425,#426);
#358=AXIS2_PLACEMENT_3D('',#530,#427,#428);
#359=AXIS2_PLACEMENT_3D('',#531,#429,#430);
#360=AXIS2_PLACEMENT_3D('',#533,#431,#432);
#361=AXIS2_PLACEMENT_3D('',#534,#433,#434);
#362=AXIS2_PLACEMENT_3D('',#536,#435,#436);
#363=AXIS2_PLACEMENT_3D('',#537,#437,#438);
#364=AXIS2_PLACEMENT_3D('',#539,#439,#440);
#365=AXIS2_PLACEMENT_3D('',#540,#441,#442);
#366=AXIS2_PLACEMENT_3D('',#542,#443,#444);
#367=AXIS2_PLACEMENT_3D('',#543,#445,#446);
#368=AXIS2_PLACEMENT_3D('',#545,#447,#448);
#369=AXIS2_PLACEMENT_3D('',#546,#449,#450);
#370=AXIS2_PLACEMENT_3D('',#548,#451,#452);
#371=AXIS2_PLACEMENT_3D('',#549,#453,#454);
#372=AXIS2_PLACEMENT_3D('',#551,#455,#456);
#373=AXIS2_PLACEMENT_3D('',#552,#457,#458);
#374=AXIS2_PLACEMENT_3D('',#554,#459,#460);
#375=AXIS2_PLACEMENT_3D('',#556,#461,#462);
#376=AXIS2_PLACEMENT_3D('',#558,#463,#464);
#377=AXIS2_PLACEMENT_3D('',#560,#465,#466);
#378=AXIS2_PLACEMENT_3D('',#562,#467,#468);
#379=AXIS2_PLACEMENT_3D('',#563,#469,#470);
#380=AXIS2_PLACEMENT_3D('',#564,#471,#472);
#381=AXIS2_PLACEMENT_3D('',#565,#473,#474);
#382=AXIS2_PLACEMENT_3D('',#566,#475,#476);
#383=AXIS2_PLACEMENT_3D('',#568,#477,#478);
#384=AXIS2_PLACEMENT_3D('',#569,#479,#480);
#385=AXIS2_PLACEMENT_3D('',#571,#481,#482);
#386=AXIS2_PLACEMENT_3D('',#572,#483,#484);
#387=AXIS2_PLACEMENT_3D('',#573,#485,#486);
#388=AXIS2_PLACEMENT_3D('',#575,#487,#488);
#389=AXIS2_PLACEMENT_3D('',#577,#489,#490);
#390=AXIS2_PLACEMENT_3D('',#578,#491,#492);
#391=AXIS2_PLACEMENT_3D('',#580,#493,#494);
#392=AXIS2_PLACEMENT_3D('',#581,#495,#496);
#393=AXIS2_PLACEMENT_3D('',#582,#497,#498);
#394=AXIS2_PLACEMENT_3D('',#583,#499,#500);
#395=AXIS2_PLACEMENT_3D('',#585,#501,#502);
#396=AXIS2_PLACEMENT_3D('',#586,#503,#504);
#397=DIRECTION('axis',(0.,0.,1.));
#398=DIRECTION('refdir',(1.,0.,0.));
#399=DIRECTION('center_axis',(3.28778672422258E-17,-1.,6.77287801256432E-32));
#400=DIRECTION('ref_axis',(0.963288558656895,5.01761496768381E-17,0.268468159677684));
#401=DIRECTION('center_axis',(3.28778672422258E-17,-1.,6.77287801256432E-32));
#402=DIRECTION('ref_axis',(0.963288558656895,5.01761496768381E-17,0.268468159677684));
#403=DIRECTION('center_axis',(0.,1.,0.));
#404=DIRECTION('ref_axis',(0.963288558656895,5.01761496768381E-17,0.268468159677684));
#405=DIRECTION('center_axis',(3.28778672422258E-17,-1.,6.77287801256432E-32));
#406=DIRECTION('ref_axis',(0.268468159677684,8.67361737988404E-18,-0.963288558656895));
#407=DIRECTION('center_axis',(0.,1.,0.));
#408=DIRECTION('ref_axis',(1.83697019872103E-16,0.,1.));
#409=DIRECTION('center_axis',(0.,-1.,0.));
#410=DIRECTION('ref_axis',(1.83697019872103E-16,0.,1.));
#411=DIRECTION('center_axis',(0.,1.,0.));
#412=DIRECTION('ref_axis',(1.83697019872103E-16,0.,1.));
#413=DIRECTION('center_axis',(0.,1.,0.));
#414=DIRECTION('ref_axis',(0.,0.,1.));
#415=DIRECTION('center_axis',(0.,-1.,0.));
#416=DIRECTION('ref_axis',(-1.,0.,0.));
#417=DIRECTION('center_axis',(0.,1.,0.));
#418=DIRECTION('ref_axis',(1.,0.,-1.22464679914735E-16));
#419=DIRECTION('center_axis',(0.,1.,0.));
#420=DIRECTION('ref_axis',(-1.,0.,0.));
#421=DIRECTION('center_axis',(0.,-1.,0.));
#422=DIRECTION('ref_axis',(1.,0.,0.));
#423=DIRECTION('center_axis',(0.,1.,0.));
#424=DIRECTION('ref_axis',(-6.12323399573677E-17,0.,-1.));
#425=DIRECTION('center_axis',(0.,-1.,0.));
#426=DIRECTION('ref_axis',(1.83697019872103E-16,0.,1.));
#427=DIRECTION('center_axis',(0.,1.,0.));
#428=DIRECTION('ref_axis',(1.83697019872103E-16,0.,1.));
#429=DIRECTION('center_axis',(0.,1.,0.));
#430=DIRECTION('ref_axis',(1.,0.,-1.22464679914735E-16));
#431=DIRECTION('center_axis',(0.,-1.,0.));
#432=DIRECTION('ref_axis',(1.,0.,-1.22464679914735E-16));
#433=DIRECTION('center_axis',(0.,-1.,0.));
#434=DIRECTION('ref_axis',(1.,0.,-1.22464679914735E-16));
#435=DIRECTION('center_axis',(0.,1.,0.));
#436=DIRECTION('ref_axis',(1.,0.,-1.22464679914735E-16));
#437=DIRECTION('center_axis',(0.,1.,0.));
#438=DIRECTION('ref_axis',(-6.12323399573677E-17,0.,-1.));
#439=DIRECTION('center_axis',(0.,-1.,0.));
#440=DIRECTION('ref_axis',(-6.12323399573677E-17,0.,-1.));
#441=DIRECTION('center_axis',(0.,-1.,0.));
#442=DIRECTION('ref_axis',(-6.12323399573677E-17,0.,-1.));
#443=DIRECTION('center_axis',(0.,1.,0.));
#444=DIRECTION('ref_axis',(-6.12323399573677E-17,0.,-1.));
#445=DIRECTION('center_axis',(0.,1.,0.));
#446=DIRECTION('ref_axis',(-1.,0.,0.));
#447=DIRECTION('center_axis',(0.,-1.,0.));
#448=DIRECTION('ref_axis',(-1.,0.,0.));
#449=DIRECTION('center_axis',(0.,-1.,0.));
#450=DIRECTION('ref_axis',(-1.,0.,0.));
#451=DIRECTION('center_axis',(0.,1.,0.));
#452=DIRECTION('ref_axis',(-1.,0.,0.));
#453=DIRECTION('center_axis',(0.,-1.,0.));
#454=DIRECTION('ref_axis',(-1.,0.,0.));
#455=DIRECTION('center_axis',(0.,-1.,0.));
#456=DIRECTION('ref_axis',(-1.,0.,0.));
#457=DIRECTION('center_axis',(0.,-1.,0.));
#458=DIRECTION('ref_axis',(0.,0.,-1.));
#459=DIRECTION('center_axis',(0.,1.,0.));
#460=DIRECTION('ref_axis',(-1.,0.,0.));
#461=DIRECTION('center_axis',(0.,-1.,0.));
#462=DIRECTION('ref_axis',(-6.12323399573677E-17,0.,-1.));
#463=DIRECTION('center_axis',(0.,-1.,0.));
#464=DIRECTION('ref_axis',(1.83697019872103E-16,0.,1.));
#465=DIRECTION('center_axis',(0.,-1.,0.));
#466=DIRECTION('ref_axis',(1.,0.,0.));
#467=DIRECTION('center_axis',(0.,-1.,0.));
#468=DIRECTION('ref_axis',(1.,0.,-1.22464679914735E-16));
#469=DIRECTION('center_axis',(0.,-1.,0.));
#470=DIRECTION('ref_axis',(-6.12323399573677E-17,0.,-1.));
#471=DIRECTION('center_axis',(0.,-1.,0.));
#472=DIRECTION('ref_axis',(1.,0.,-1.22464679914735E-16));
#473=DIRECTION('center_axis',(0.,-1.,0.));
#474=DIRECTION('ref_axis',(1.83697019872103E-16,0.,1.));
#475=DIRECTION('center_axis',(0.,1.,0.));
#476=DIRECTION('ref_axis',(-1.,0.,0.));
#477=DIRECTION('center_axis',(0.,-1.,0.));
#478=DIRECTION('ref_axis',(-1.,0.,0.));
#479=DIRECTION('center_axis',(0.,-1.,0.));
#480=DIRECTION('ref_axis',(1.,0.,0.));
#481=DIRECTION('center_axis',(0.,1.,0.));
#482=DIRECTION('ref_axis',(-1.,0.,0.));
#483=DIRECTION('center_axis',(0.,-1.,0.));
#484=DIRECTION('ref_axis',(-1.,0.,0.));
#485=DIRECTION('center_axis',(0.,1.,0.));
#486=DIRECTION('ref_axis',(1.,0.,0.));
#487=DIRECTION('center_axis',(0.,1.,0.));
#488=DIRECTION('ref_axis',(1.,0.,0.));
#489=DIRECTION('center_axis',(0.,1.,0.));
#490=DIRECTION('ref_axis',(1.,0.,0.));
#491=DIRECTION('center_axis',(0.,-1.,0.));
#492=DIRECTION('ref_axis',(0.,0.,-1.));
#493=DIRECTION('center_axis',(0.,1.,0.));
#494=DIRECTION('ref_axis',(1.,0.,0.));
#495=DIRECTION('center_axis',(0.,1.,0.));
#496=DIRECTION('ref_axis',(1.,0.,0.));
#497=DIRECTION('center_axis',(0.,-1.,0.));
#498=DIRECTION('ref_axis',(0.,0.,-1.));
#499=DIRECTION('center_axis',(0.,-1.,0.));
#500=DIRECTION('ref_axis',(1.,0.,0.));
#501=DIRECTION('center_axis',(0.,-1.,0.));
#502=DIRECTION('ref_axis',(1.,0.,0.));
#503=DIRECTION('center_axis',(0.,-1.,0.));
#504=DIRECTION('ref_axis',(0.,0.,-1.));
#505=CARTESIAN_POINT('',(0.,0.,0.));
#506=CARTESIAN_POINT('Origin',(1.07336427248258E-18,-0.00249999999999987,
-2.72496164537165E-33));
#507=CARTESIAN_POINT('',(2.31189254077655,-0.00499999999999966,0.644323583226443));
#508=CARTESIAN_POINT('Origin',(1.15555894058814E-18,-0.00499999999999973,
-2.55563969505755E-33));
#509=CARTESIAN_POINT('',(2.31189254077655,7.60100960339434E-17,0.644323583226443));
#510=CARTESIAN_POINT('Origin',(9.91169604377027E-19,-1.04517089427603E-16,
-2.89428359568574E-33));
#511=CARTESIAN_POINT('Origin',(2.23723767748064,-0.00499999999999982,0.623517300851422));
#512=CARTESIAN_POINT('Origin',(-7.62,2.34,1.39977129142542E-15));
#513=CARTESIAN_POINT('',(-7.62,2.29,-0.954999999999999));
#514=CARTESIAN_POINT('Origin',(-7.62,2.29,1.39977129142542E-15));
#515=CARTESIAN_POINT('',(-7.62,2.39,-1.055));
#516=CARTESIAN_POINT('Origin',(-7.62,2.39,1.39977129142542E-15));
#517=CARTESIAN_POINT('Origin',(4.7625,2.39,0.));
#518=CARTESIAN_POINT('',(9.425,2.39,1.15422960819638E-15));
#519=CARTESIAN_POINT('Origin',(0.,2.39,0.));
#520=CARTESIAN_POINT('',(-1.055,2.39,7.62));
#521=CARTESIAN_POINT('Origin',(9.33180860950283E-16,2.39,7.62));
#522=CARTESIAN_POINT('',(1.055,2.39,-7.62));
#523=CARTESIAN_POINT('Origin',(0.,2.39,-7.62));
#524=CARTESIAN_POINT('',(0.505,2.39,0.));
#525=CARTESIAN_POINT('Origin',(0.,2.39,0.));
#526=CARTESIAN_POINT('',(7.62,2.39,1.055));
#527=CARTESIAN_POINT('Origin',(7.62,2.39,-4.66590430475142E-16));
#528=CARTESIAN_POINT('Origin',(-7.62,2.39,1.39977129142542E-15));
#529=CARTESIAN_POINT('',(-7.62,0.26,-0.954999999999999));
#530=CARTESIAN_POINT('Origin',(-7.62,0.26,1.39977129142542E-15));
#531=CARTESIAN_POINT('Origin',(9.33180860950283E-16,2.34,7.62));
#532=CARTESIAN_POINT('',(-0.954999999999999,2.29,7.62));
#533=CARTESIAN_POINT('Origin',(9.33180860950283E-16,2.29,7.62));
#534=CARTESIAN_POINT('Origin',(9.33180860950283E-16,2.39,7.62));
#535=CARTESIAN_POINT('',(-0.954999999999999,0.26,7.62));
#536=CARTESIAN_POINT('Origin',(9.33180860950283E-16,0.26,7.62));
#537=CARTESIAN_POINT('Origin',(7.62,2.34,-4.66590430475142E-16));
#538=CARTESIAN_POINT('',(7.62,2.29,0.955));
#539=CARTESIAN_POINT('Origin',(7.62,2.29,-4.66590430475142E-16));
#540=CARTESIAN_POINT('Origin',(7.62,2.39,-4.66590430475142E-16));
#541=CARTESIAN_POINT('',(7.62,0.26,0.955));
#542=CARTESIAN_POINT('Origin',(7.62,0.26,-4.66590430475142E-16));
#543=CARTESIAN_POINT('Origin',(0.,2.34,-7.62));
#544=CARTESIAN_POINT('',(0.955,2.29,-7.62));
#545=CARTESIAN_POINT('Origin',(0.,2.29,-7.62));
#546=CARTESIAN_POINT('Origin',(0.,2.39,-7.62));
#547=CARTESIAN_POINT('',(0.955,0.26,-7.62));
#548=CARTESIAN_POINT('Origin',(0.,0.26,-7.62));
#549=CARTESIAN_POINT('Origin',(0.,0.21,-7.62));
#550=CARTESIAN_POINT('',(1.055,0.16,-7.62));
#551=CARTESIAN_POINT('Origin',(0.,0.16,-7.62));
#552=CARTESIAN_POINT('Origin',(7.9375,0.16,0.));
#553=CARTESIAN_POINT('',(9.425,0.16,-1.15422960819638E-15));
#554=CARTESIAN_POINT('Origin',(0.,0.16,0.));
#555=CARTESIAN_POINT('',(7.62,0.16,1.055));
#556=CARTESIAN_POINT('Origin',(7.62,0.16,-4.66590430475142E-16));
#557=CARTESIAN_POINT('',(-7.62,0.16,-1.055));
#558=CARTESIAN_POINT('Origin',(-7.62,0.16,1.39977129142542E-15));
#559=CARTESIAN_POINT('',(6.35,0.16,0.));
#560=CARTESIAN_POINT('Origin',(0.,0.16,0.));
#561=CARTESIAN_POINT('',(-1.055,0.16,7.62));
#562=CARTESIAN_POINT('Origin',(9.33180860950283E-16,0.16,7.62));
#563=CARTESIAN_POINT('Origin',(7.62,0.21,-4.66590430475142E-16));
#564=CARTESIAN_POINT('Origin',(9.33180860950283E-16,0.21,7.62));
#565=CARTESIAN_POINT('Origin',(-7.62,0.21,1.39977129142542E-15));
#566=CARTESIAN_POINT('Origin',(0.,0.21,0.));
#567=CARTESIAN_POINT('',(9.525,0.26,1.16647607618785E-15));
#568=CARTESIAN_POINT('Origin',(0.,0.26,0.));
#569=CARTESIAN_POINT('Origin',(0.,1.275,0.));
#570=CARTESIAN_POINT('',(9.525,2.29,-1.16647607618785E-15));
#571=CARTESIAN_POINT('Origin',(0.,2.29,0.));
#572=CARTESIAN_POINT('Origin',(0.,2.34,0.));
#573=CARTESIAN_POINT('Origin',(0.,2.26,0.));
#574=CARTESIAN_POINT('',(0.275,2.31,0.));
#575=CARTESIAN_POINT('Origin',(0.,2.31,0.));
#576=CARTESIAN_POINT('',(0.275,2.21,0.));
#577=CARTESIAN_POINT('Origin',(0.,2.21,0.));
#578=CARTESIAN_POINT('Origin',(0.39,2.31,0.));
#579=CARTESIAN_POINT('',(0.505,2.31,0.));
#580=CARTESIAN_POINT('Origin',(0.,2.31,0.));
#581=CARTESIAN_POINT('Origin',(0.,2.35,0.));
#582=CARTESIAN_POINT('Origin',(0.1375,2.21,0.));
#583=CARTESIAN_POINT('Origin',(0.,0.08,0.));
#584=CARTESIAN_POINT('',(6.35,0.,0.));
#585=CARTESIAN_POINT('Origin',(0.,0.,0.));
#586=CARTESIAN_POINT('Origin',(3.175,0.,0.));
#587=UNCERTAINTY_MEASURE_WITH_UNIT(LENGTH_MEASURE(0.001),#591,
'DISTANCE_ACCURACY_VALUE',
'Maximum model space distance between geometric entities at asserted c
onnectivities');
#588=UNCERTAINTY_MEASURE_WITH_UNIT(LENGTH_MEASURE(1.E-6),#592,
'DISTANCE_ACCURACY_VALUE',
'Maximum model space distance between geometric entities at asserted c
onnectivities');
#589=(
GEOMETRIC_REPRESENTATION_CONTEXT(3)
GLOBAL_UNCERTAINTY_ASSIGNED_CONTEXT((#587))
GLOBAL_UNIT_ASSIGNED_CONTEXT((#591,#595,#593))
REPRESENTATION_CONTEXT('','3D')
);
#590=(
GEOMETRIC_REPRESENTATION_CONTEXT(3)
GLOBAL_UNCERTAINTY_ASSIGNED_CONTEXT((#588))
GLOBAL_UNIT_ASSIGNED_CONTEXT((#592,#595,#593))
REPRESENTATION_CONTEXT('','3D')
);
#591=(
LENGTH_UNIT()
NAMED_UNIT(*)
SI_UNIT(.CENTI.,.METRE.)
);
#592=(
LENGTH_UNIT()
NAMED_UNIT(*)
SI_UNIT(.MILLI.,.METRE.)
);
#593=(
NAMED_UNIT(*)
SI_UNIT($,.STERADIAN.)
SOLID_ANGLE_UNIT()
);
#594=DIMENSIONAL_EXPONENTS(0.,0.,0.,0.,0.,0.,0.);
#595=(
CONVERSION_BASED_UNIT('degree',#597)
NAMED_UNIT(#594)
PLANE_ANGLE_UNIT()
);
#596=(
NAMED_UNIT(*)
PLANE_ANGLE_UNIT()
SI_UNIT($,.RADIAN.)
);
#597=PLANE_ANGLE_MEASURE_WITH_UNIT(PLANE_ANGLE_MEASURE(0.01745329252),#596);
#598=SHAPE_DEFINITION_REPRESENTATION(#599,#600);
#599=PRODUCT_DEFINITION_SHAPE('',$,#602);
#600=SHAPE_REPRESENTATION('',(#343),#589);
#601=PRODUCT_DEFINITION_CONTEXT('part definition',#606,'design');
#602=PRODUCT_DEFINITION('31402W','31402W',#603,#601);
#603=PRODUCT_DEFINITION_FORMATION('',$,#608);
#604=PRODUCT_RELATED_PRODUCT_CATEGORY('31402W','31402W',(#608));
#605=APPLICATION_PROTOCOL_DEFINITION('international standard',
'automotive_design',2009,#606);
#606=APPLICATION_CONTEXT(
'Core Data for Automotive Mechanical Design Process');
#607=PRODUCT_CONTEXT('part definition',#606,'mechanical');
#608=PRODUCT('31402W','31402W',$,(#607));
#609=PRESENTATION_STYLE_ASSIGNMENT((#612));
#610=PRESENTATION_STYLE_ASSIGNMENT((#613));
#611=PRESENTATION_STYLE_ASSIGNMENT((#614));
#612=SURFACE_STYLE_USAGE(.BOTH.,#615);
#613=SURFACE_STYLE_USAGE(.BOTH.,#616);
#614=SURFACE_STYLE_USAGE(.BOTH.,#617);
#615=SURFACE_SIDE_STYLE($,(#618));
#616=SURFACE_SIDE_STYLE($,(#619));
#617=SURFACE_SIDE_STYLE($,(#620));
#618=SURFACE_STYLE_FILL_AREA(#621);
#619=SURFACE_STYLE_FILL_AREA(#622);
#620=SURFACE_STYLE_FILL_AREA(#623);
#621=FILL_AREA_STYLE($,(#624));
#622=FILL_AREA_STYLE($,(#625));
#623=FILL_AREA_STYLE($,(#626));
#624=FILL_AREA_STYLE_COLOUR($,#627);
#625=FILL_AREA_STYLE_COLOUR($,#628);
#626=FILL_AREA_STYLE_COLOUR($,#629);
#627=COLOUR_RGB('',0.749019607843137,0.749019607843137,0.749019607843137);
#628=COLOUR_RGB('',0.549019607843137,0.549019607843137,0.592156862745098);
#629=COLOUR_RGB('',0.63921568627451,0.63921568627451,0.686274509803922);
ENDSEC;
END-ISO-10303-21;
