ISO-10303-21;
HEADER;
/* Generated by software containing ST-Developer
 * from STEP Tools, Inc. (www.steptools.com) 
 */

FILE_DESCRIPTION(
/* description */ (''),
/* implementation_level */ '2;1');

FILE_NAME(
/* name */ 
'J:\\AM_Zeichnung\\Inventor\\PROJEKT_STAMMORDNER\\Druckmittler\\Druckm
ittler_Baugruppen\\MD60\\Step\\solid\\31914W.stp',
/* time_stamp */ '2018-02-05T12:22:49+01:00',
/* author */ ('acgl'),
/* organization */ (''),
/* preprocessor_version */ 'ST-DEVELOPER v15.6',
/* originating_system */ 'Autodesk Inventor 2015',
/* authorisation */ '');

FILE_SCHEMA (('AUTOMOTIVE_DESIGN { 1 0 10303 214 3 1 1 }'));
ENDSEC;

DATA;
#10=MECHANICAL_DESIGN_GEOMETRIC_PRESENTATION_REPRESENTATION('',(#240,#236,
#242,#238,#241,#237,#239,#229,#224,#225,#226,#227,#223,#228,#230,#222,#231,
#234,#232,#233,#235),#461);
#11=APPLIED_GROUP_ASSIGNMENT(#12,(#14));
#12=GROUP('Fl\X\E4chen3::Abgeleitet',$);
#13=OPEN_SHELL('',(#263));
#14=SHELL_BASED_SURFACE_MODEL('Fl\X\E4che1',(#13));
#15=SHAPE_REPRESENTATION_RELATIONSHIP('SRR','None',#471,#16);
#16=ADVANCED_BREP_SHAPE_REPRESENTATION($,(#17),#460);
#17=MANIFOLD_SOLID_BREP('Volumenk\X\F6rper1',#264);
#18=CONICAL_SURFACE('',#276,2.05644336151461,23.0000000000002);
#19=CONICAL_SURFACE('',#280,2.29355663848539,22.9999999999997);
#20=CONICAL_SURFACE('',#290,2.23012561865444,70.);
#21=CONICAL_SURFACE('',#294,1.64583850067083,50.);
#22=TOROIDAL_SURFACE('',#274,1.97470691716733,0.08);
#23=TOROIDAL_SURFACE('',#278,2.175,0.12);
#24=TOROIDAL_SURFACE('',#282,2.37529308283267,0.08);
#25=TOROIDAL_SURFACE('',#288,2.445,0.08);
#26=TOROIDAL_SURFACE('',#292,2.05629365450796,0.200000000000003);
#27=TOROIDAL_SURFACE('',#296,1.33180148828669,0.05);
#28=FACE_BOUND('',#74,.T.);
#29=FACE_BOUND('',#77,.T.);
#30=FACE_BOUND('',#79,.T.);
#31=FACE_BOUND('',#81,.T.);
#32=FACE_BOUND('',#83,.T.);
#33=FACE_BOUND('',#85,.T.);
#34=FACE_BOUND('',#87,.T.);
#35=FACE_BOUND('',#89,.T.);
#36=FACE_BOUND('',#91,.T.);
#37=FACE_BOUND('',#93,.T.);
#38=FACE_BOUND('',#95,.T.);
#39=FACE_BOUND('',#97,.T.);
#40=FACE_BOUND('',#99,.T.);
#41=FACE_BOUND('',#101,.T.);
#42=FACE_BOUND('',#103,.T.);
#43=FACE_BOUND('',#105,.T.);
#44=FACE_BOUND('',#107,.T.);
#45=FACE_BOUND('',#109,.T.);
#46=FACE_BOUND('',#111,.T.);
#47=CYLINDRICAL_SURFACE('',#268,1.175);
#48=CYLINDRICAL_SURFACE('',#286,2.525);
#49=CYLINDRICAL_SURFACE('',#300,0.505);
#50=CYLINDRICAL_SURFACE('',#304,0.275);
#51=FACE_OUTER_BOUND('',#72,.T.);
#52=FACE_OUTER_BOUND('',#73,.T.);
#53=FACE_OUTER_BOUND('',#75,.T.);
#54=FACE_OUTER_BOUND('',#76,.T.);
#55=FACE_OUTER_BOUND('',#78,.T.);
#56=FACE_OUTER_BOUND('',#80,.T.);
#57=FACE_OUTER_BOUND('',#82,.T.);
#58=FACE_OUTER_BOUND('',#84,.T.);
#59=FACE_OUTER_BOUND('',#86,.T.);
#60=FACE_OUTER_BOUND('',#88,.T.);
#61=FACE_OUTER_BOUND('',#90,.T.);
#62=FACE_OUTER_BOUND('',#92,.T.);
#63=FACE_OUTER_BOUND('',#94,.T.);
#64=FACE_OUTER_BOUND('',#96,.T.);
#65=FACE_OUTER_BOUND('',#98,.T.);
#66=FACE_OUTER_BOUND('',#100,.T.);
#67=FACE_OUTER_BOUND('',#102,.T.);
#68=FACE_OUTER_BOUND('',#104,.T.);
#69=FACE_OUTER_BOUND('',#106,.T.);
#70=FACE_OUTER_BOUND('',#108,.T.);
#71=FACE_OUTER_BOUND('',#110,.T.);
#72=EDGE_LOOP('',(#175));
#73=EDGE_LOOP('',(#176));
#74=EDGE_LOOP('',(#177));
#75=EDGE_LOOP('',(#178));
#76=EDGE_LOOP('',(#179));
#77=EDGE_LOOP('',(#180));
#78=EDGE_LOOP('',(#181));
#79=EDGE_LOOP('',(#182));
#80=EDGE_LOOP('',(#183));
#81=EDGE_LOOP('',(#184));
#82=EDGE_LOOP('',(#185));
#83=EDGE_LOOP('',(#186));
#84=EDGE_LOOP('',(#187));
#85=EDGE_LOOP('',(#188));
#86=EDGE_LOOP('',(#189));
#87=EDGE_LOOP('',(#190));
#88=EDGE_LOOP('',(#191));
#89=EDGE_LOOP('',(#192));
#90=EDGE_LOOP('',(#193));
#91=EDGE_LOOP('',(#194));
#92=EDGE_LOOP('',(#195));
#93=EDGE_LOOP('',(#196));
#94=EDGE_LOOP('',(#197));
#95=EDGE_LOOP('',(#198));
#96=EDGE_LOOP('',(#199));
#97=EDGE_LOOP('',(#200));
#98=EDGE_LOOP('',(#201));
#99=EDGE_LOOP('',(#202));
#100=EDGE_LOOP('',(#203));
#101=EDGE_LOOP('',(#204));
#102=EDGE_LOOP('',(#205));
#103=EDGE_LOOP('',(#206));
#104=EDGE_LOOP('',(#207));
#105=EDGE_LOOP('',(#208));
#106=EDGE_LOOP('',(#209));
#107=EDGE_LOOP('',(#210));
#108=EDGE_LOOP('',(#211));
#109=EDGE_LOOP('',(#212));
#110=EDGE_LOOP('',(#213));
#111=EDGE_LOOP('',(#214));
#112=CIRCLE('',#267,0.275);
#113=CIRCLE('',#269,1.175);
#114=CIRCLE('',#270,1.175);
#115=CIRCLE('',#273,1.97470691716733);
#116=CIRCLE('',#275,2.04834730544352);
#117=CIRCLE('',#277,2.06453941758571);
#118=CIRCLE('',#279,2.28546058241429);
#119=CIRCLE('',#281,2.30165269455648);
#120=CIRCLE('',#283,2.37529308283267);
#121=CIRCLE('',#285,2.525);
#122=CIRCLE('',#287,2.525);
#123=CIRCLE('',#289,2.47236161146605);
#124=CIRCLE('',#291,1.98788962584282);
#125=CIRCLE('',#293,1.92773613257065);
#126=CIRCLE('',#295,1.36394086877102);
#127=CIRCLE('',#297,1.33180148828669);
#128=CIRCLE('',#299,0.505);
#129=CIRCLE('',#301,0.505);
#130=CIRCLE('',#303,0.275);
#131=CIRCLE('',#306,1.125);
#132=CIRCLE('',#307,0.960902499492903);
#133=VERTEX_POINT('',#396);
#134=VERTEX_POINT('',#399);
#135=VERTEX_POINT('',#401);
#136=VERTEX_POINT('',#405);
#137=VERTEX_POINT('',#408);
#138=VERTEX_POINT('',#411);
#139=VERTEX_POINT('',#414);
#140=VERTEX_POINT('',#417);
#141=VERTEX_POINT('',#420);
#142=VERTEX_POINT('',#423);
#143=VERTEX_POINT('',#426);
#144=VERTEX_POINT('',#429);
#145=VERTEX_POINT('',#432);
#146=VERTEX_POINT('',#435);
#147=VERTEX_POINT('',#438);
#148=VERTEX_POINT('',#441);
#149=VERTEX_POINT('',#444);
#150=VERTEX_POINT('',#447);
#151=VERTEX_POINT('',#450);
#152=VERTEX_POINT('',#454);
#153=VERTEX_POINT('',#456);
#154=EDGE_CURVE('',#133,#133,#112,.T.);
#155=EDGE_CURVE('',#134,#134,#113,.T.);
#156=EDGE_CURVE('',#135,#135,#114,.T.);
#157=EDGE_CURVE('',#136,#136,#115,.T.);
#158=EDGE_CURVE('',#137,#137,#116,.T.);
#159=EDGE_CURVE('',#138,#138,#117,.T.);
#160=EDGE_CURVE('',#139,#139,#118,.T.);
#161=EDGE_CURVE('',#140,#140,#119,.T.);
#162=EDGE_CURVE('',#141,#141,#120,.T.);
#163=EDGE_CURVE('',#142,#142,#121,.T.);
#164=EDGE_CURVE('',#143,#143,#122,.T.);
#165=EDGE_CURVE('',#144,#144,#123,.T.);
#166=EDGE_CURVE('',#145,#145,#124,.T.);
#167=EDGE_CURVE('',#146,#146,#125,.T.);
#168=EDGE_CURVE('',#147,#147,#126,.T.);
#169=EDGE_CURVE('',#148,#148,#127,.T.);
#170=EDGE_CURVE('',#149,#149,#128,.T.);
#171=EDGE_CURVE('',#150,#150,#129,.T.);
#172=EDGE_CURVE('',#151,#151,#130,.T.);
#173=EDGE_CURVE('',#152,#152,#131,.T.);
#174=EDGE_CURVE('',#153,#153,#132,.T.);
#175=ORIENTED_EDGE('',*,*,#154,.T.);
#176=ORIENTED_EDGE('',*,*,#155,.F.);
#177=ORIENTED_EDGE('',*,*,#156,.F.);
#178=ORIENTED_EDGE('',*,*,#155,.T.);
#179=ORIENTED_EDGE('',*,*,#157,.F.);
#180=ORIENTED_EDGE('',*,*,#156,.T.);
#181=ORIENTED_EDGE('',*,*,#158,.F.);
#182=ORIENTED_EDGE('',*,*,#157,.T.);
#183=ORIENTED_EDGE('',*,*,#159,.F.);
#184=ORIENTED_EDGE('',*,*,#158,.T.);
#185=ORIENTED_EDGE('',*,*,#160,.F.);
#186=ORIENTED_EDGE('',*,*,#159,.T.);
#187=ORIENTED_EDGE('',*,*,#161,.F.);
#188=ORIENTED_EDGE('',*,*,#160,.T.);
#189=ORIENTED_EDGE('',*,*,#162,.F.);
#190=ORIENTED_EDGE('',*,*,#161,.T.);
#191=ORIENTED_EDGE('',*,*,#163,.F.);
#192=ORIENTED_EDGE('',*,*,#162,.T.);
#193=ORIENTED_EDGE('',*,*,#164,.F.);
#194=ORIENTED_EDGE('',*,*,#163,.T.);
#195=ORIENTED_EDGE('',*,*,#165,.F.);
#196=ORIENTED_EDGE('',*,*,#164,.T.);
#197=ORIENTED_EDGE('',*,*,#166,.F.);
#198=ORIENTED_EDGE('',*,*,#165,.T.);
#199=ORIENTED_EDGE('',*,*,#167,.F.);
#200=ORIENTED_EDGE('',*,*,#166,.T.);
#201=ORIENTED_EDGE('',*,*,#168,.F.);
#202=ORIENTED_EDGE('',*,*,#167,.T.);
#203=ORIENTED_EDGE('',*,*,#169,.F.);
#204=ORIENTED_EDGE('',*,*,#168,.T.);
#205=ORIENTED_EDGE('',*,*,#169,.T.);
#206=ORIENTED_EDGE('',*,*,#170,.F.);
#207=ORIENTED_EDGE('',*,*,#171,.F.);
#208=ORIENTED_EDGE('',*,*,#170,.T.);
#209=ORIENTED_EDGE('',*,*,#171,.T.);
#210=ORIENTED_EDGE('',*,*,#172,.F.);
#211=ORIENTED_EDGE('',*,*,#154,.F.);
#212=ORIENTED_EDGE('',*,*,#172,.T.);
#213=ORIENTED_EDGE('',*,*,#173,.F.);
#214=ORIENTED_EDGE('',*,*,#174,.T.);
#215=PLANE('',#266);
#216=PLANE('',#271);
#217=PLANE('',#272);
#218=PLANE('',#284);
#219=PLANE('',#298);
#220=PLANE('',#302);
#221=PLANE('',#305);
#222=STYLED_ITEM('',(#481),#243);
#223=STYLED_ITEM('',(#482),#244);
#224=STYLED_ITEM('',(#482),#245);
#225=STYLED_ITEM('',(#481),#246);
#226=STYLED_ITEM('',(#481),#247);
#227=STYLED_ITEM('',(#481),#248);
#228=STYLED_ITEM('',(#481),#249);
#229=STYLED_ITEM('',(#481),#250);
#230=STYLED_ITEM('',(#481),#251);
#231=STYLED_ITEM('',(#481),#252);
#232=STYLED_ITEM('',(#481),#253);
#233=STYLED_ITEM('',(#481),#254);
#234=STYLED_ITEM('',(#481),#255);
#235=STYLED_ITEM('',(#481),#256);
#236=STYLED_ITEM('',(#481),#257);
#237=STYLED_ITEM('',(#481),#258);
#238=STYLED_ITEM('',(#481),#259);
#239=STYLED_ITEM('',(#481),#260);
#240=STYLED_ITEM('',(#481),#261);
#241=STYLED_ITEM('',(#481),#262);
#242=STYLED_ITEM('',(#480),#17);
#243=ADVANCED_FACE('',(#51),#215,.F.);
#244=ADVANCED_FACE('',(#52,#28),#47,.T.);
#245=ADVANCED_FACE('',(#53),#216,.T.);
#246=ADVANCED_FACE('',(#54,#29),#217,.T.);
#247=ADVANCED_FACE('',(#55,#30),#22,.T.);
#248=ADVANCED_FACE('',(#56,#31),#18,.T.);
#249=ADVANCED_FACE('',(#57,#32),#23,.F.);
#250=ADVANCED_FACE('',(#58,#33),#19,.F.);
#251=ADVANCED_FACE('',(#59,#34),#24,.T.);
#252=ADVANCED_FACE('',(#60,#35),#218,.T.);
#253=ADVANCED_FACE('',(#61,#36),#48,.T.);
#254=ADVANCED_FACE('',(#62,#37),#25,.T.);
#255=ADVANCED_FACE('',(#63,#38),#20,.T.);
#256=ADVANCED_FACE('',(#64,#39),#26,.F.);
#257=ADVANCED_FACE('',(#65,#40),#21,.T.);
#258=ADVANCED_FACE('',(#66,#41),#27,.T.);
#259=ADVANCED_FACE('',(#67,#42),#219,.T.);
#260=ADVANCED_FACE('',(#68,#43),#49,.F.);
#261=ADVANCED_FACE('',(#69,#44),#220,.T.);
#262=ADVANCED_FACE('',(#70,#45),#50,.F.);
#263=ADVANCED_FACE('',(#71,#46),#221,.F.);
#264=CLOSED_SHELL('',(#243,#244,#245,#246,#247,#248,#249,#250,#251,#252,
#253,#254,#255,#256,#257,#258,#259,#260,#261,#262));
#265=AXIS2_PLACEMENT_3D('placement',#394,#308,#309);
#266=AXIS2_PLACEMENT_3D('',#395,#310,#311);
#267=AXIS2_PLACEMENT_3D('',#397,#312,#313);
#268=AXIS2_PLACEMENT_3D('',#398,#314,#315);
#269=AXIS2_PLACEMENT_3D('',#400,#316,#317);
#270=AXIS2_PLACEMENT_3D('',#402,#318,#319);
#271=AXIS2_PLACEMENT_3D('',#403,#320,#321);
#272=AXIS2_PLACEMENT_3D('',#404,#322,#323);
#273=AXIS2_PLACEMENT_3D('',#406,#324,#325);
#274=AXIS2_PLACEMENT_3D('',#407,#326,#327);
#275=AXIS2_PLACEMENT_3D('',#409,#328,#329);
#276=AXIS2_PLACEMENT_3D('',#410,#330,#331);
#277=AXIS2_PLACEMENT_3D('',#412,#332,#333);
#278=AXIS2_PLACEMENT_3D('',#413,#334,#335);
#279=AXIS2_PLACEMENT_3D('',#415,#336,#337);
#280=AXIS2_PLACEMENT_3D('',#416,#338,#339);
#281=AXIS2_PLACEMENT_3D('',#418,#340,#341);
#282=AXIS2_PLACEMENT_3D('',#419,#342,#343);
#283=AXIS2_PLACEMENT_3D('',#421,#344,#345);
#284=AXIS2_PLACEMENT_3D('',#422,#346,#347);
#285=AXIS2_PLACEMENT_3D('',#424,#348,#349);
#286=AXIS2_PLACEMENT_3D('',#425,#350,#351);
#287=AXIS2_PLACEMENT_3D('',#427,#352,#353);
#288=AXIS2_PLACEMENT_3D('',#428,#354,#355);
#289=AXIS2_PLACEMENT_3D('',#430,#356,#357);
#290=AXIS2_PLACEMENT_3D('',#431,#358,#359);
#291=AXIS2_PLACEMENT_3D('',#433,#360,#361);
#292=AXIS2_PLACEMENT_3D('',#434,#362,#363);
#293=AXIS2_PLACEMENT_3D('',#436,#364,#365);
#294=AXIS2_PLACEMENT_3D('',#437,#366,#367);
#295=AXIS2_PLACEMENT_3D('',#439,#368,#369);
#296=AXIS2_PLACEMENT_3D('',#440,#370,#371);
#297=AXIS2_PLACEMENT_3D('',#442,#372,#373);
#298=AXIS2_PLACEMENT_3D('',#443,#374,#375);
#299=AXIS2_PLACEMENT_3D('',#445,#376,#377);
#300=AXIS2_PLACEMENT_3D('',#446,#378,#379);
#301=AXIS2_PLACEMENT_3D('',#448,#380,#381);
#302=AXIS2_PLACEMENT_3D('',#449,#382,#383);
#303=AXIS2_PLACEMENT_3D('',#451,#384,#385);
#304=AXIS2_PLACEMENT_3D('',#452,#386,#387);
#305=AXIS2_PLACEMENT_3D('',#453,#388,#389);
#306=AXIS2_PLACEMENT_3D('',#455,#390,#391);
#307=AXIS2_PLACEMENT_3D('',#457,#392,#393);
#308=DIRECTION('axis',(0.,0.,1.));
#309=DIRECTION('refdir',(1.,0.,0.));
#310=DIRECTION('center_axis',(0.,-1.,0.));
#311=DIRECTION('ref_axis',(0.,0.,-1.));
#312=DIRECTION('center_axis',(0.,1.,0.));
#313=DIRECTION('ref_axis',(1.,0.,0.));
#314=DIRECTION('center_axis',(0.,-1.,0.));
#315=DIRECTION('ref_axis',(0.,0.,-1.));
#316=DIRECTION('center_axis',(0.,-1.,0.));
#317=DIRECTION('ref_axis',(0.,0.,-1.));
#318=DIRECTION('center_axis',(0.,1.,0.));
#319=DIRECTION('ref_axis',(0.,0.,-1.));
#320=DIRECTION('center_axis',(0.,-1.,0.));
#321=DIRECTION('ref_axis',(-1.,0.,0.));
#322=DIRECTION('center_axis',(0.,-1.,0.));
#323=DIRECTION('ref_axis',(0.,0.,-1.));
#324=DIRECTION('center_axis',(0.,1.,0.));
#325=DIRECTION('ref_axis',(1.,0.,0.));
#326=DIRECTION('center_axis',(0.,1.,0.));
#327=DIRECTION('ref_axis',(0.,0.,1.));
#328=DIRECTION('center_axis',(0.,1.,0.));
#329=DIRECTION('ref_axis',(1.,0.,0.));
#330=DIRECTION('center_axis',(0.,1.,0.));
#331=DIRECTION('ref_axis',(1.,0.,0.));
#332=DIRECTION('center_axis',(0.,1.,0.));
#333=DIRECTION('ref_axis',(1.,0.,0.));
#334=DIRECTION('center_axis',(0.,1.,0.));
#335=DIRECTION('ref_axis',(0.,0.,1.));
#336=DIRECTION('center_axis',(0.,1.,0.));
#337=DIRECTION('ref_axis',(1.,0.,0.));
#338=DIRECTION('center_axis',(0.,-1.,0.));
#339=DIRECTION('ref_axis',(1.,0.,0.));
#340=DIRECTION('center_axis',(0.,1.,0.));
#341=DIRECTION('ref_axis',(1.,0.,0.));
#342=DIRECTION('center_axis',(0.,1.,0.));
#343=DIRECTION('ref_axis',(0.,0.,1.));
#344=DIRECTION('center_axis',(0.,1.,0.));
#345=DIRECTION('ref_axis',(1.,0.,0.));
#346=DIRECTION('center_axis',(0.,-1.,0.));
#347=DIRECTION('ref_axis',(0.,0.,-1.));
#348=DIRECTION('center_axis',(0.,1.,0.));
#349=DIRECTION('ref_axis',(1.,0.,0.));
#350=DIRECTION('center_axis',(0.,1.,0.));
#351=DIRECTION('ref_axis',(1.,0.,0.));
#352=DIRECTION('center_axis',(0.,1.,0.));
#353=DIRECTION('ref_axis',(1.,0.,0.));
#354=DIRECTION('center_axis',(0.,1.,0.));
#355=DIRECTION('ref_axis',(0.,0.,1.));
#356=DIRECTION('center_axis',(0.,1.,0.));
#357=DIRECTION('ref_axis',(1.,0.,0.));
#358=DIRECTION('center_axis',(0.,-1.,0.));
#359=DIRECTION('ref_axis',(1.,0.,0.));
#360=DIRECTION('center_axis',(0.,1.,0.));
#361=DIRECTION('ref_axis',(1.,0.,0.));
#362=DIRECTION('center_axis',(0.,1.,0.));
#363=DIRECTION('ref_axis',(0.,0.,1.));
#364=DIRECTION('center_axis',(0.,1.,0.));
#365=DIRECTION('ref_axis',(1.,0.,0.));
#366=DIRECTION('center_axis',(0.,-1.,0.));
#367=DIRECTION('ref_axis',(1.,0.,0.));
#368=DIRECTION('center_axis',(0.,1.,0.));
#369=DIRECTION('ref_axis',(1.,0.,0.));
#370=DIRECTION('center_axis',(0.,1.,0.));
#371=DIRECTION('ref_axis',(0.,0.,1.));
#372=DIRECTION('center_axis',(0.,1.,0.));
#373=DIRECTION('ref_axis',(1.,0.,0.));
#374=DIRECTION('center_axis',(0.,1.,0.));
#375=DIRECTION('ref_axis',(0.,0.,1.));
#376=DIRECTION('center_axis',(0.,1.,0.));
#377=DIRECTION('ref_axis',(1.,0.,0.));
#378=DIRECTION('center_axis',(0.,1.,0.));
#379=DIRECTION('ref_axis',(1.,0.,0.));
#380=DIRECTION('center_axis',(0.,1.,0.));
#381=DIRECTION('ref_axis',(1.,0.,0.));
#382=DIRECTION('center_axis',(0.,1.,0.));
#383=DIRECTION('ref_axis',(0.,0.,1.));
#384=DIRECTION('center_axis',(0.,1.,0.));
#385=DIRECTION('ref_axis',(1.,0.,0.));
#386=DIRECTION('center_axis',(0.,1.,0.));
#387=DIRECTION('ref_axis',(1.,0.,0.));
#388=DIRECTION('center_axis',(0.,-1.,0.));
#389=DIRECTION('ref_axis',(-1.,0.,0.));
#390=DIRECTION('center_axis',(0.,-1.,0.));
#391=DIRECTION('ref_axis',(-1.,0.,0.));
#392=DIRECTION('center_axis',(0.,-1.,0.));
#393=DIRECTION('ref_axis',(-1.,0.,0.));
#394=CARTESIAN_POINT('',(0.,0.,0.));
#395=CARTESIAN_POINT('Origin',(0.,0.82,0.));
#396=CARTESIAN_POINT('',(0.275,0.82,0.));
#397=CARTESIAN_POINT('Origin',(0.,0.82,0.));
#398=CARTESIAN_POINT('Origin',(0.,-0.0025,0.));
#399=CARTESIAN_POINT('',(0.,-0.005,-1.175));
#400=CARTESIAN_POINT('Origin',(0.,-0.005,0.));
#401=CARTESIAN_POINT('',(0.,-3.46944695195361E-18,-1.175));
#402=CARTESIAN_POINT('Origin',(0.,6.93889390390723E-18,0.));
#403=CARTESIAN_POINT('Origin',(0.,-0.005,-1.06665820309875));
#404=CARTESIAN_POINT('Origin',(1.48985345858366,6.93889390390723E-18,0.));
#405=CARTESIAN_POINT('',(1.97470691716733,1.38777878078145E-17,0.));
#406=CARTESIAN_POINT('Origin',(0.,0.,0.));
#407=CARTESIAN_POINT('Origin',(0.,0.0800000000000007,0.));
#408=CARTESIAN_POINT('',(2.04834730544352,0.0487415097208576,0.));
#409=CARTESIAN_POINT('Origin',(0.,0.0487415097208577,0.));
#410=CARTESIAN_POINT('Origin',(0.,0.0678146225697852,0.));
#411=CARTESIAN_POINT('',(2.06453941758571,0.0868877354187127,0.));
#412=CARTESIAN_POINT('Origin',(0.,0.0868877354187128,0.));
#413=CARTESIAN_POINT('Origin',(0.,0.04,0.));
#414=CARTESIAN_POINT('',(2.28546058241429,0.0868877354187127,0.));
#415=CARTESIAN_POINT('Origin',(0.,0.0868877354187128,0.));
#416=CARTESIAN_POINT('Origin',(0.,0.0678146225697852,0.));
#417=CARTESIAN_POINT('',(2.30165269455648,0.0487415097208578,0.));
#418=CARTESIAN_POINT('Origin',(0.,0.0487415097208578,0.));
#419=CARTESIAN_POINT('Origin',(0.,0.0799999999999992,0.));
#420=CARTESIAN_POINT('',(2.37529308283267,0.,0.));
#421=CARTESIAN_POINT('Origin',(0.,0.,0.));
#422=CARTESIAN_POINT('Origin',(2.45014654141634,0.,0.));
#423=CARTESIAN_POINT('',(2.525,0.,0.));
#424=CARTESIAN_POINT('Origin',(0.,0.,0.));
#425=CARTESIAN_POINT('Origin',(0.,0.114491698471612,0.));
#426=CARTESIAN_POINT('',(2.525,0.228983396943223,0.));
#427=CARTESIAN_POINT('Origin',(0.,0.228983396943223,0.));
#428=CARTESIAN_POINT('Origin',(0.,0.228983396943223,0.));
#429=CARTESIAN_POINT('',(2.47236161146605,0.304158806606096,0.));
#430=CARTESIAN_POINT('Origin',(0.,0.304158806606096,0.));
#431=CARTESIAN_POINT('Origin',(0.,0.392325497657446,0.));
#432=CARTESIAN_POINT('',(1.98788962584282,0.480492188708796,0.));
#433=CARTESIAN_POINT('Origin',(0.,0.480492188708796,0.));
#434=CARTESIAN_POINT('Origin',(0.,0.668430712865978,0.));
#435=CARTESIAN_POINT('',(1.92773613257065,0.515221824242182,0.));
#436=CARTESIAN_POINT('Origin',(0.,0.515221824242182,0.));
#437=CARTESIAN_POINT('Origin',(0.,0.751762023199065,0.));
#438=CARTESIAN_POINT('',(1.36394086877102,0.988302222155949,0.));
#439=CARTESIAN_POINT('Origin',(0.,0.988302222155949,0.));
#440=CARTESIAN_POINT('Origin',(0.,0.949999999999998,0.));
#441=CARTESIAN_POINT('',(1.33180148828669,1.,0.));
#442=CARTESIAN_POINT('Origin',(0.,1.,0.));
#443=CARTESIAN_POINT('Origin',(0.918400744143345,1.,0.));
#444=CARTESIAN_POINT('',(0.505,1.,0.));
#445=CARTESIAN_POINT('Origin',(0.,1.,0.));
#446=CARTESIAN_POINT('Origin',(0.,0.96,0.));
#447=CARTESIAN_POINT('',(0.505,0.92,0.));
#448=CARTESIAN_POINT('Origin',(0.,0.92,0.));
#449=CARTESIAN_POINT('Origin',(0.39,0.92,0.));
#450=CARTESIAN_POINT('',(0.275,0.92,0.));
#451=CARTESIAN_POINT('Origin',(0.,0.92,0.));
#452=CARTESIAN_POINT('Origin',(0.,0.87,0.));
#453=CARTESIAN_POINT('Origin',(0.,-8.67361737988404E-18,0.));
#454=CARTESIAN_POINT('',(1.125,-8.67361737988404E-18,-1.37772764904077E-16));
#455=CARTESIAN_POINT('Origin',(0.,-8.67361737988404E-18,0.));
#456=CARTESIAN_POINT('',(0.960902499492903,-8.67361737988404E-18,-1.17676617029667E-16));
#457=CARTESIAN_POINT('Origin',(0.,-8.67361737988404E-18,0.));
#458=UNCERTAINTY_MEASURE_WITH_UNIT(LENGTH_MEASURE(0.001),#462,
'DISTANCE_ACCURACY_VALUE',
'Maximum model space distance between geometric entities at asserted c
onnectivities');
#459=UNCERTAINTY_MEASURE_WITH_UNIT(LENGTH_MEASURE(1.E-6),#463,
'DISTANCE_ACCURACY_VALUE',
'Maximum model space distance between geometric entities at asserted c
onnectivities');
#460=(
GEOMETRIC_REPRESENTATION_CONTEXT(3)
GLOBAL_UNCERTAINTY_ASSIGNED_CONTEXT((#458))
GLOBAL_UNIT_ASSIGNED_CONTEXT((#462,#466,#464))
REPRESENTATION_CONTEXT('','3D')
);
#461=(
GEOMETRIC_REPRESENTATION_CONTEXT(3)
GLOBAL_UNCERTAINTY_ASSIGNED_CONTEXT((#459))
GLOBAL_UNIT_ASSIGNED_CONTEXT((#463,#466,#464))
REPRESENTATION_CONTEXT('','3D')
);
#462=(
LENGTH_UNIT()
NAMED_UNIT(*)
SI_UNIT(.CENTI.,.METRE.)
);
#463=(
LENGTH_UNIT()
NAMED_UNIT(*)
SI_UNIT(.MILLI.,.METRE.)
);
#464=(
NAMED_UNIT(*)
SI_UNIT($,.STERADIAN.)
SOLID_ANGLE_UNIT()
);
#465=DIMENSIONAL_EXPONENTS(0.,0.,0.,0.,0.,0.,0.);
#466=(
CONVERSION_BASED_UNIT('degree',#468)
NAMED_UNIT(#465)
PLANE_ANGLE_UNIT()
);
#467=(
NAMED_UNIT(*)
PLANE_ANGLE_UNIT()
SI_UNIT($,.RADIAN.)
);
#468=PLANE_ANGLE_MEASURE_WITH_UNIT(PLANE_ANGLE_MEASURE(0.01745329252),#467);
#469=SHAPE_DEFINITION_REPRESENTATION(#470,#471);
#470=PRODUCT_DEFINITION_SHAPE('',$,#473);
#471=SHAPE_REPRESENTATION('',(#265,#14),#460);
#472=PRODUCT_DEFINITION_CONTEXT('part definition',#477,'design');
#473=PRODUCT_DEFINITION('31914W-2','31914W-2',#474,#472);
#474=PRODUCT_DEFINITION_FORMATION('',$,#479);
#475=PRODUCT_RELATED_PRODUCT_CATEGORY('31914W-2','31914W-2',(#479));
#476=APPLICATION_PROTOCOL_DEFINITION('international standard',
'automotive_design',2009,#477);
#477=APPLICATION_CONTEXT(
'Core Data for Automotive Mechanical Design Process');
#478=PRODUCT_CONTEXT('part definition',#477,'mechanical');
#479=PRODUCT('31914W-2','31914W-2',$,(#478));
#480=PRESENTATION_STYLE_ASSIGNMENT((#483));
#481=PRESENTATION_STYLE_ASSIGNMENT((#484));
#482=PRESENTATION_STYLE_ASSIGNMENT((#485));
#483=SURFACE_STYLE_USAGE(.BOTH.,#486);
#484=SURFACE_STYLE_USAGE(.BOTH.,#487);
#485=SURFACE_STYLE_USAGE(.BOTH.,#488);
#486=SURFACE_SIDE_STYLE($,(#489));
#487=SURFACE_SIDE_STYLE($,(#490));
#488=SURFACE_SIDE_STYLE($,(#491));
#489=SURFACE_STYLE_FILL_AREA(#492);
#490=SURFACE_STYLE_FILL_AREA(#493);
#491=SURFACE_STYLE_FILL_AREA(#494);
#492=FILL_AREA_STYLE($,(#495));
#493=FILL_AREA_STYLE($,(#496));
#494=FILL_AREA_STYLE($,(#497));
#495=FILL_AREA_STYLE_COLOUR($,#498);
#496=FILL_AREA_STYLE_COLOUR($,#499);
#497=FILL_AREA_STYLE_COLOUR($,#500);
#498=COLOUR_RGB('',0.749019607843137,0.749019607843137,0.749019607843137);
#499=COLOUR_RGB('',0.549019607843137,0.549019607843137,0.592156862745098);
#500=COLOUR_RGB('',0.549019607843137,0.549019607843137,0.592156862745098);
ENDSEC;
END-ISO-10303-21;
