ISO-10303-21;
HEADER;
/* Generated by software containing ST-Developer
 * from STEP Tools, Inc. (www.steptools.com) 
 */

FILE_DESCRIPTION(
/* description */ (''),
/* implementation_level */ '2;1');

FILE_NAME(
/* name */ 
'J:\\AM_Zeichnung\\Inventor\\PROJEKT_STAMMORDNER\\Druckmittler\\Druckm
ittler_Baugruppen\\MD81\\step\\31938W.stp',
/* time_stamp */ '2018-02-06T11:33:04+01:00',
/* author */ ('acgl'),
/* organization */ (''),
/* preprocessor_version */ 'ST-DEVELOPER v15.6',
/* originating_system */ 'Autodesk Inventor 2015',
/* authorisation */ '');

FILE_SCHEMA (('AUTOMOTIVE_DESIGN { 1 0 10303 214 3 1 1 }'));
ENDSEC;

DATA;
#10=MECHANICAL_DESIGN_GEOMETRIC_PRESENTATION_REPRESENTATION('',(#13),#613);
#11=SHAPE_REPRESENTATION_RELATIONSHIP('SRR','None',#622,#12);
#12=ADVANCED_BREP_SHAPE_REPRESENTATION($,(#14),#612);
#13=STYLED_ITEM('',(#631),#14);
#14=MANIFOLD_SOLID_BREP('Volumenk\X\F6rper1',#329);
#15=(
BOUNDED_CURVE()
B_SPLINE_CURVE(2,(#602,#603,#604),.UNSPECIFIED.,.F.,.F.)
B_SPLINE_CURVE_WITH_KNOTS((3,3),(-1.5707963267949,-1.1794712047007),
 .UNSPECIFIED.)
CURVE()
GEOMETRIC_REPRESENTATION_ITEM()
RATIONAL_B_SPLINE_CURVE((1.,0.980919072067098,1.))
REPRESENTATION_ITEM('')
);
#16=(
BOUNDED_SURFACE()
B_SPLINE_SURFACE(2,2,((#571,#572,#573,#574,#575,#576,#577,#578,#579),(#580,
#581,#582,#583,#584,#585,#586,#587,#588),(#589,#590,#591,#592,#593,#594,
#595,#596,#597)),.UNSPECIFIED.,.F.,.T.,.F.)
B_SPLINE_SURFACE_WITH_KNOTS((3,3),(3,2,2,2,3),(1.1794712047007,1.5707963267949),
(-3.14159265358979,-1.5707963267949,0.,1.5707963267949,3.14159265358979),
 .UNSPECIFIED.)
GEOMETRIC_REPRESENTATION_ITEM()
RATIONAL_B_SPLINE_SURFACE(((1.,0.707106781186548,1.,0.707106781186548,1.,
0.707106781186548,1.,0.707106781186548,1.),(0.980919072067098,0.693614527653861,
0.980919072067098,0.693614527653861,0.980919072067098,0.693614527653861,
0.980919072067098,0.693614527653861,0.980919072067098),(1.,0.707106781186548,
1.,0.707106781186548,1.,0.707106781186548,1.,0.707106781186548,1.)))
REPRESENTATION_ITEM('')
SURFACE()
);
#17=TOROIDAL_SURFACE('',#370,11.0532221405588,1.61528571235781);
#18=TOROIDAL_SURFACE('',#372,9.08760754813242,1.52819334745535);
#19=TOROIDAL_SURFACE('',#374,7.07083610652655,2.88822525776188);
#20=TOROIDAL_SURFACE('',#376,5.02335203504074,3.17070854686079);
#21=PLANE('',#336);
#22=PLANE('',#344);
#23=PLANE('',#354);
#24=PLANE('',#357);
#25=PLANE('',#362);
#26=PLANE('',#368);
#27=PLANE('',#381);
#28=PLANE('',#382);
#29=CYLINDRICAL_SURFACE('',#334,54.);
#30=CYLINDRICAL_SURFACE('',#350,8.);
#31=CYLINDRICAL_SURFACE('',#351,8.);
#32=CYLINDRICAL_SURFACE('',#352,8.);
#33=CYLINDRICAL_SURFACE('',#353,8.);
#34=CYLINDRICAL_SURFACE('',#360,2.75);
#35=CYLINDRICAL_SURFACE('',#364,5.05);
#36=CYLINDRICAL_SURFACE('',#365,25.5);
#37=CYLINDRICAL_SURFACE('',#366,12.5);
#38=CYLINDRICAL_SURFACE('',#384,1.50000000000001);
#39=FACE_BOUND('',#95,.T.);
#40=FACE_BOUND('',#97,.T.);
#41=FACE_BOUND('',#99,.T.);
#42=FACE_BOUND('',#100,.T.);
#43=FACE_BOUND('',#101,.T.);
#44=FACE_BOUND('',#102,.T.);
#45=FACE_BOUND('',#103,.T.);
#46=FACE_BOUND('',#105,.T.);
#47=FACE_BOUND('',#107,.T.);
#48=FACE_BOUND('',#108,.T.);
#49=FACE_BOUND('',#109,.T.);
#50=FACE_BOUND('',#110,.T.);
#51=FACE_BOUND('',#111,.T.);
#52=FACE_BOUND('',#113,.T.);
#53=FACE_BOUND('',#115,.T.);
#54=FACE_BOUND('',#117,.T.);
#55=FACE_BOUND('',#119,.T.);
#56=FACE_BOUND('',#121,.T.);
#57=FACE_BOUND('',#123,.T.);
#58=FACE_BOUND('',#125,.T.);
#59=FACE_BOUND('',#127,.T.);
#60=FACE_BOUND('',#129,.T.);
#61=FACE_BOUND('',#131,.T.);
#62=FACE_BOUND('',#133,.T.);
#63=FACE_BOUND('',#135,.T.);
#64=FACE_BOUND('',#137,.T.);
#65=FACE_BOUND('',#139,.T.);
#66=FACE_BOUND('',#141,.T.);
#67=FACE_BOUND('',#143,.T.);
#68=FACE_BOUND('',#148,.T.);
#69=FACE_OUTER_BOUND('',#94,.T.);
#70=FACE_OUTER_BOUND('',#96,.T.);
#71=FACE_OUTER_BOUND('',#98,.T.);
#72=FACE_OUTER_BOUND('',#104,.T.);
#73=FACE_OUTER_BOUND('',#106,.T.);
#74=FACE_OUTER_BOUND('',#112,.T.);
#75=FACE_OUTER_BOUND('',#114,.T.);
#76=FACE_OUTER_BOUND('',#116,.T.);
#77=FACE_OUTER_BOUND('',#118,.T.);
#78=FACE_OUTER_BOUND('',#120,.T.);
#79=FACE_OUTER_BOUND('',#122,.T.);
#80=FACE_OUTER_BOUND('',#124,.T.);
#81=FACE_OUTER_BOUND('',#126,.T.);
#82=FACE_OUTER_BOUND('',#128,.T.);
#83=FACE_OUTER_BOUND('',#130,.T.);
#84=FACE_OUTER_BOUND('',#132,.T.);
#85=FACE_OUTER_BOUND('',#134,.T.);
#86=FACE_OUTER_BOUND('',#136,.T.);
#87=FACE_OUTER_BOUND('',#138,.T.);
#88=FACE_OUTER_BOUND('',#140,.T.);
#89=FACE_OUTER_BOUND('',#142,.T.);
#90=FACE_OUTER_BOUND('',#144,.T.);
#91=FACE_OUTER_BOUND('',#145,.T.);
#92=FACE_OUTER_BOUND('',#146,.T.);
#93=FACE_OUTER_BOUND('',#147,.T.);
#94=EDGE_LOOP('',(#240));
#95=EDGE_LOOP('',(#241));
#96=EDGE_LOOP('',(#242));
#97=EDGE_LOOP('',(#243));
#98=EDGE_LOOP('',(#244));
#99=EDGE_LOOP('',(#245));
#100=EDGE_LOOP('',(#246));
#101=EDGE_LOOP('',(#247));
#102=EDGE_LOOP('',(#248));
#103=EDGE_LOOP('',(#249));
#104=EDGE_LOOP('',(#250));
#105=EDGE_LOOP('',(#251));
#106=EDGE_LOOP('',(#252));
#107=EDGE_LOOP('',(#253));
#108=EDGE_LOOP('',(#254));
#109=EDGE_LOOP('',(#255));
#110=EDGE_LOOP('',(#256));
#111=EDGE_LOOP('',(#257));
#112=EDGE_LOOP('',(#258));
#113=EDGE_LOOP('',(#259));
#114=EDGE_LOOP('',(#260));
#115=EDGE_LOOP('',(#261));
#116=EDGE_LOOP('',(#262));
#117=EDGE_LOOP('',(#263));
#118=EDGE_LOOP('',(#264));
#119=EDGE_LOOP('',(#265));
#120=EDGE_LOOP('',(#266));
#121=EDGE_LOOP('',(#267));
#122=EDGE_LOOP('',(#268));
#123=EDGE_LOOP('',(#269));
#124=EDGE_LOOP('',(#270));
#125=EDGE_LOOP('',(#271));
#126=EDGE_LOOP('',(#272));
#127=EDGE_LOOP('',(#273));
#128=EDGE_LOOP('',(#274));
#129=EDGE_LOOP('',(#275));
#130=EDGE_LOOP('',(#276));
#131=EDGE_LOOP('',(#277));
#132=EDGE_LOOP('',(#278));
#133=EDGE_LOOP('',(#279));
#134=EDGE_LOOP('',(#280));
#135=EDGE_LOOP('',(#281));
#136=EDGE_LOOP('',(#282));
#137=EDGE_LOOP('',(#283));
#138=EDGE_LOOP('',(#284));
#139=EDGE_LOOP('',(#285));
#140=EDGE_LOOP('',(#286));
#141=EDGE_LOOP('',(#287));
#142=EDGE_LOOP('',(#288,#289));
#143=EDGE_LOOP('',(#290));
#144=EDGE_LOOP('',(#291,#292,#293,#294,#295,#296));
#145=EDGE_LOOP('',(#297,#298));
#146=EDGE_LOOP('',(#299));
#147=EDGE_LOOP('',(#300));
#148=EDGE_LOOP('',(#301));
#149=CIRCLE('',#332,53.);
#150=CIRCLE('',#333,54.);
#151=CIRCLE('',#335,54.);
#152=CIRCLE('',#337,5.05);
#153=CIRCLE('',#338,8.);
#154=CIRCLE('',#339,8.);
#155=CIRCLE('',#340,8.);
#156=CIRCLE('',#341,8.);
#157=CIRCLE('',#343,53.);
#158=CIRCLE('',#345,25.5);
#159=CIRCLE('',#346,8.);
#160=CIRCLE('',#347,8.);
#161=CIRCLE('',#348,8.);
#162=CIRCLE('',#349,8.);
#163=CIRCLE('',#355,25.5);
#164=CIRCLE('',#356,12.5);
#165=CIRCLE('',#358,2.75);
#166=CIRCLE('',#359,1.5);
#167=CIRCLE('',#361,2.75);
#168=CIRCLE('',#363,5.05);
#169=CIRCLE('',#367,12.5);
#170=CIRCLE('',#369,11.0532221405588);
#171=CIRCLE('',#371,10.0431854561289);
#172=CIRCLE('',#373,8.38975325126863);
#173=CIRCLE('',#375,6.09482359329878);
#174=CIRCLE('',#377,3.81400036163657);
#175=CIRCLE('',#378,3.81400036163657);
#176=CIRCLE('',#379,2.20084908260319);
#177=CIRCLE('',#380,2.20084908260319);
#178=CIRCLE('',#383,1.5);
#179=VERTEX_POINT('',#497);
#180=VERTEX_POINT('',#499);
#181=VERTEX_POINT('',#502);
#182=VERTEX_POINT('',#505);
#183=VERTEX_POINT('',#507);
#184=VERTEX_POINT('',#509);
#185=VERTEX_POINT('',#511);
#186=VERTEX_POINT('',#513);
#187=VERTEX_POINT('',#516);
#188=VERTEX_POINT('',#519);
#189=VERTEX_POINT('',#521);
#190=VERTEX_POINT('',#523);
#191=VERTEX_POINT('',#525);
#192=VERTEX_POINT('',#527);
#193=VERTEX_POINT('',#534);
#194=VERTEX_POINT('',#536);
#195=VERTEX_POINT('',#539);
#196=VERTEX_POINT('',#541);
#197=VERTEX_POINT('',#544);
#198=VERTEX_POINT('',#547);
#199=VERTEX_POINT('',#552);
#200=VERTEX_POINT('',#555);
#201=VERTEX_POINT('',#558);
#202=VERTEX_POINT('',#561);
#203=VERTEX_POINT('',#564);
#204=VERTEX_POINT('',#567);
#205=VERTEX_POINT('',#568);
#206=VERTEX_POINT('',#598);
#207=VERTEX_POINT('',#599);
#208=VERTEX_POINT('',#607);
#209=EDGE_CURVE('',#179,#179,#149,.T.);
#210=EDGE_CURVE('',#180,#180,#150,.T.);
#211=EDGE_CURVE('',#181,#181,#151,.T.);
#212=EDGE_CURVE('',#182,#182,#152,.T.);
#213=EDGE_CURVE('',#183,#183,#153,.T.);
#214=EDGE_CURVE('',#184,#184,#154,.T.);
#215=EDGE_CURVE('',#185,#185,#155,.T.);
#216=EDGE_CURVE('',#186,#186,#156,.T.);
#217=EDGE_CURVE('',#187,#187,#157,.T.);
#218=EDGE_CURVE('',#188,#188,#158,.T.);
#219=EDGE_CURVE('',#189,#189,#159,.T.);
#220=EDGE_CURVE('',#190,#190,#160,.T.);
#221=EDGE_CURVE('',#191,#191,#161,.T.);
#222=EDGE_CURVE('',#192,#192,#162,.T.);
#223=EDGE_CURVE('',#193,#193,#163,.T.);
#224=EDGE_CURVE('',#194,#194,#164,.T.);
#225=EDGE_CURVE('',#195,#195,#165,.T.);
#226=EDGE_CURVE('',#196,#196,#166,.T.);
#227=EDGE_CURVE('',#197,#197,#167,.T.);
#228=EDGE_CURVE('',#198,#198,#168,.T.);
#229=EDGE_CURVE('',#199,#199,#169,.T.);
#230=EDGE_CURVE('',#200,#200,#170,.T.);
#231=EDGE_CURVE('',#201,#201,#171,.T.);
#232=EDGE_CURVE('',#202,#202,#172,.T.);
#233=EDGE_CURVE('',#203,#203,#173,.T.);
#234=EDGE_CURVE('',#204,#205,#174,.T.);
#235=EDGE_CURVE('',#205,#204,#175,.T.);
#236=EDGE_CURVE('',#206,#207,#176,.T.);
#237=EDGE_CURVE('',#207,#206,#177,.T.);
#238=EDGE_CURVE('',#207,#205,#15,.T.);
#239=EDGE_CURVE('',#208,#208,#178,.T.);
#240=ORIENTED_EDGE('',*,*,#209,.T.);
#241=ORIENTED_EDGE('',*,*,#210,.T.);
#242=ORIENTED_EDGE('',*,*,#211,.F.);
#243=ORIENTED_EDGE('',*,*,#210,.F.);
#244=ORIENTED_EDGE('',*,*,#209,.F.);
#245=ORIENTED_EDGE('',*,*,#212,.T.);
#246=ORIENTED_EDGE('',*,*,#213,.T.);
#247=ORIENTED_EDGE('',*,*,#214,.T.);
#248=ORIENTED_EDGE('',*,*,#215,.T.);
#249=ORIENTED_EDGE('',*,*,#216,.T.);
#250=ORIENTED_EDGE('',*,*,#211,.T.);
#251=ORIENTED_EDGE('',*,*,#217,.T.);
#252=ORIENTED_EDGE('',*,*,#217,.F.);
#253=ORIENTED_EDGE('',*,*,#218,.F.);
#254=ORIENTED_EDGE('',*,*,#219,.T.);
#255=ORIENTED_EDGE('',*,*,#220,.T.);
#256=ORIENTED_EDGE('',*,*,#221,.T.);
#257=ORIENTED_EDGE('',*,*,#222,.T.);
#258=ORIENTED_EDGE('',*,*,#222,.F.);
#259=ORIENTED_EDGE('',*,*,#216,.F.);
#260=ORIENTED_EDGE('',*,*,#221,.F.);
#261=ORIENTED_EDGE('',*,*,#215,.F.);
#262=ORIENTED_EDGE('',*,*,#220,.F.);
#263=ORIENTED_EDGE('',*,*,#214,.F.);
#264=ORIENTED_EDGE('',*,*,#219,.F.);
#265=ORIENTED_EDGE('',*,*,#213,.F.);
#266=ORIENTED_EDGE('',*,*,#223,.T.);
#267=ORIENTED_EDGE('',*,*,#224,.F.);
#268=ORIENTED_EDGE('',*,*,#225,.F.);
#269=ORIENTED_EDGE('',*,*,#226,.T.);
#270=ORIENTED_EDGE('',*,*,#227,.F.);
#271=ORIENTED_EDGE('',*,*,#225,.T.);
#272=ORIENTED_EDGE('',*,*,#228,.F.);
#273=ORIENTED_EDGE('',*,*,#227,.T.);
#274=ORIENTED_EDGE('',*,*,#212,.F.);
#275=ORIENTED_EDGE('',*,*,#228,.T.);
#276=ORIENTED_EDGE('',*,*,#223,.F.);
#277=ORIENTED_EDGE('',*,*,#218,.T.);
#278=ORIENTED_EDGE('',*,*,#229,.F.);
#279=ORIENTED_EDGE('',*,*,#224,.T.);
#280=ORIENTED_EDGE('',*,*,#229,.T.);
#281=ORIENTED_EDGE('',*,*,#230,.F.);
#282=ORIENTED_EDGE('',*,*,#231,.F.);
#283=ORIENTED_EDGE('',*,*,#230,.T.);
#284=ORIENTED_EDGE('',*,*,#232,.F.);
#285=ORIENTED_EDGE('',*,*,#231,.T.);
#286=ORIENTED_EDGE('',*,*,#233,.F.);
#287=ORIENTED_EDGE('',*,*,#232,.T.);
#288=ORIENTED_EDGE('',*,*,#234,.F.);
#289=ORIENTED_EDGE('',*,*,#235,.F.);
#290=ORIENTED_EDGE('',*,*,#233,.T.);
#291=ORIENTED_EDGE('',*,*,#236,.F.);
#292=ORIENTED_EDGE('',*,*,#237,.F.);
#293=ORIENTED_EDGE('',*,*,#238,.T.);
#294=ORIENTED_EDGE('',*,*,#235,.T.);
#295=ORIENTED_EDGE('',*,*,#234,.T.);
#296=ORIENTED_EDGE('',*,*,#238,.F.);
#297=ORIENTED_EDGE('',*,*,#236,.T.);
#298=ORIENTED_EDGE('',*,*,#237,.T.);
#299=ORIENTED_EDGE('',*,*,#239,.F.);
#300=ORIENTED_EDGE('',*,*,#226,.F.);
#301=ORIENTED_EDGE('',*,*,#239,.T.);
#302=CONICAL_SURFACE('',#331,53.5,44.9999999999999);
#303=CONICAL_SURFACE('',#342,53.5,44.9999999999998);
#304=ADVANCED_FACE('',(#69,#39),#302,.T.);
#305=ADVANCED_FACE('',(#70,#40),#29,.T.);
#306=ADVANCED_FACE('',(#71,#41,#42,#43,#44,#45),#21,.T.);
#307=ADVANCED_FACE('',(#72,#46),#303,.T.);
#308=ADVANCED_FACE('',(#73,#47,#48,#49,#50,#51),#22,.T.);
#309=ADVANCED_FACE('',(#74,#52),#30,.F.);
#310=ADVANCED_FACE('',(#75,#53),#31,.F.);
#311=ADVANCED_FACE('',(#76,#54),#32,.F.);
#312=ADVANCED_FACE('',(#77,#55),#33,.F.);
#313=ADVANCED_FACE('',(#78,#56),#23,.T.);
#314=ADVANCED_FACE('',(#79,#57),#24,.T.);
#315=ADVANCED_FACE('',(#80,#58),#34,.F.);
#316=ADVANCED_FACE('',(#81,#59),#25,.T.);
#317=ADVANCED_FACE('',(#82,#60),#35,.F.);
#318=ADVANCED_FACE('',(#83,#61),#36,.T.);
#319=ADVANCED_FACE('',(#84,#62),#37,.T.);
#320=ADVANCED_FACE('',(#85,#63),#26,.T.);
#321=ADVANCED_FACE('',(#86,#64),#17,.T.);
#322=ADVANCED_FACE('',(#87,#65),#18,.F.);
#323=ADVANCED_FACE('',(#88,#66),#19,.T.);
#324=ADVANCED_FACE('',(#89,#67),#20,.F.);
#325=ADVANCED_FACE('',(#90),#16,.F.);
#326=ADVANCED_FACE('',(#91),#27,.T.);
#327=ADVANCED_FACE('',(#92),#28,.T.);
#328=ADVANCED_FACE('',(#93,#68),#38,.F.);
#329=CLOSED_SHELL('',(#304,#305,#306,#307,#308,#309,#310,#311,#312,#313,
#314,#315,#316,#317,#318,#319,#320,#321,#322,#323,#324,#325,#326,#327,#328));
#330=AXIS2_PLACEMENT_3D('placement',#495,#385,#386);
#331=AXIS2_PLACEMENT_3D('',#496,#387,#388);
#332=AXIS2_PLACEMENT_3D('',#498,#389,#390);
#333=AXIS2_PLACEMENT_3D('',#500,#391,#392);
#334=AXIS2_PLACEMENT_3D('',#501,#393,#394);
#335=AXIS2_PLACEMENT_3D('',#503,#395,#396);
#336=AXIS2_PLACEMENT_3D('',#504,#397,#398);
#337=AXIS2_PLACEMENT_3D('',#506,#399,#400);
#338=AXIS2_PLACEMENT_3D('',#508,#401,#402);
#339=AXIS2_PLACEMENT_3D('',#510,#403,#404);
#340=AXIS2_PLACEMENT_3D('',#512,#405,#406);
#341=AXIS2_PLACEMENT_3D('',#514,#407,#408);
#342=AXIS2_PLACEMENT_3D('',#515,#409,#410);
#343=AXIS2_PLACEMENT_3D('',#517,#411,#412);
#344=AXIS2_PLACEMENT_3D('',#518,#413,#414);
#345=AXIS2_PLACEMENT_3D('',#520,#415,#416);
#346=AXIS2_PLACEMENT_3D('',#522,#417,#418);
#347=AXIS2_PLACEMENT_3D('',#524,#419,#420);
#348=AXIS2_PLACEMENT_3D('',#526,#421,#422);
#349=AXIS2_PLACEMENT_3D('',#528,#423,#424);
#350=AXIS2_PLACEMENT_3D('',#529,#425,#426);
#351=AXIS2_PLACEMENT_3D('',#530,#427,#428);
#352=AXIS2_PLACEMENT_3D('',#531,#429,#430);
#353=AXIS2_PLACEMENT_3D('',#532,#431,#432);
#354=AXIS2_PLACEMENT_3D('',#533,#433,#434);
#355=AXIS2_PLACEMENT_3D('',#535,#435,#436);
#356=AXIS2_PLACEMENT_3D('',#537,#437,#438);
#357=AXIS2_PLACEMENT_3D('',#538,#439,#440);
#358=AXIS2_PLACEMENT_3D('',#540,#441,#442);
#359=AXIS2_PLACEMENT_3D('',#542,#443,#444);
#360=AXIS2_PLACEMENT_3D('',#543,#445,#446);
#361=AXIS2_PLACEMENT_3D('',#545,#447,#448);
#362=AXIS2_PLACEMENT_3D('',#546,#449,#450);
#363=AXIS2_PLACEMENT_3D('',#548,#451,#452);
#364=AXIS2_PLACEMENT_3D('',#549,#453,#454);
#365=AXIS2_PLACEMENT_3D('',#550,#455,#456);
#366=AXIS2_PLACEMENT_3D('',#551,#457,#458);
#367=AXIS2_PLACEMENT_3D('',#553,#459,#460);
#368=AXIS2_PLACEMENT_3D('',#554,#461,#462);
#369=AXIS2_PLACEMENT_3D('',#556,#463,#464);
#370=AXIS2_PLACEMENT_3D('',#557,#465,#466);
#371=AXIS2_PLACEMENT_3D('',#559,#467,#468);
#372=AXIS2_PLACEMENT_3D('',#560,#469,#470);
#373=AXIS2_PLACEMENT_3D('',#562,#471,#472);
#374=AXIS2_PLACEMENT_3D('',#563,#473,#474);
#375=AXIS2_PLACEMENT_3D('',#565,#475,#476);
#376=AXIS2_PLACEMENT_3D('',#566,#477,#478);
#377=AXIS2_PLACEMENT_3D('',#569,#479,#480);
#378=AXIS2_PLACEMENT_3D('',#570,#481,#482);
#379=AXIS2_PLACEMENT_3D('',#600,#483,#484);
#380=AXIS2_PLACEMENT_3D('',#601,#485,#486);
#381=AXIS2_PLACEMENT_3D('',#605,#487,#488);
#382=AXIS2_PLACEMENT_3D('',#606,#489,#490);
#383=AXIS2_PLACEMENT_3D('',#608,#491,#492);
#384=AXIS2_PLACEMENT_3D('',#609,#493,#494);
#385=DIRECTION('axis',(0.,0.,1.));
#386=DIRECTION('refdir',(1.,0.,0.));
#387=DIRECTION('center_axis',(0.,-1.,0.));
#388=DIRECTION('ref_axis',(-1.,0.,0.));
#389=DIRECTION('center_axis',(0.,-1.,0.));
#390=DIRECTION('ref_axis',(-1.,0.,0.));
#391=DIRECTION('center_axis',(0.,1.,0.));
#392=DIRECTION('ref_axis',(-1.,0.,0.));
#393=DIRECTION('center_axis',(0.,-1.,0.));
#394=DIRECTION('ref_axis',(1.,0.,0.));
#395=DIRECTION('center_axis',(0.,-1.,0.));
#396=DIRECTION('ref_axis',(-1.,0.,0.));
#397=DIRECTION('center_axis',(0.,1.,0.));
#398=DIRECTION('ref_axis',(0.,0.,1.));
#399=DIRECTION('center_axis',(0.,-1.,0.));
#400=DIRECTION('ref_axis',(1.,0.,0.));
#401=DIRECTION('center_axis',(0.,-1.,0.));
#402=DIRECTION('ref_axis',(-1.,0.,0.));
#403=DIRECTION('center_axis',(0.,-1.,0.));
#404=DIRECTION('ref_axis',(-1.,0.,0.));
#405=DIRECTION('center_axis',(0.,-1.,0.));
#406=DIRECTION('ref_axis',(-1.,0.,0.));
#407=DIRECTION('center_axis',(0.,-1.,0.));
#408=DIRECTION('ref_axis',(-1.,0.,0.));
#409=DIRECTION('center_axis',(0.,1.,0.));
#410=DIRECTION('ref_axis',(-1.,0.,0.));
#411=DIRECTION('center_axis',(0.,1.,0.));
#412=DIRECTION('ref_axis',(-1.,0.,0.));
#413=DIRECTION('center_axis',(0.,-1.,0.));
#414=DIRECTION('ref_axis',(0.,0.,-1.));
#415=DIRECTION('center_axis',(0.,-1.,0.));
#416=DIRECTION('ref_axis',(1.,0.,0.));
#417=DIRECTION('center_axis',(0.,1.,0.));
#418=DIRECTION('ref_axis',(-1.,0.,0.));
#419=DIRECTION('center_axis',(0.,1.,0.));
#420=DIRECTION('ref_axis',(-1.,0.,0.));
#421=DIRECTION('center_axis',(0.,1.,0.));
#422=DIRECTION('ref_axis',(-1.,0.,0.));
#423=DIRECTION('center_axis',(0.,1.,0.));
#424=DIRECTION('ref_axis',(-1.,0.,0.));
#425=DIRECTION('center_axis',(0.,-1.,0.));
#426=DIRECTION('ref_axis',(-1.,0.,0.));
#427=DIRECTION('center_axis',(0.,-1.,0.));
#428=DIRECTION('ref_axis',(-1.,0.,0.));
#429=DIRECTION('center_axis',(0.,-1.,0.));
#430=DIRECTION('ref_axis',(-1.,0.,0.));
#431=DIRECTION('center_axis',(0.,-1.,0.));
#432=DIRECTION('ref_axis',(-1.,0.,0.));
#433=DIRECTION('center_axis',(0.,-1.,0.));
#434=DIRECTION('ref_axis',(0.,0.,-1.));
#435=DIRECTION('center_axis',(0.,-1.,0.));
#436=DIRECTION('ref_axis',(1.,0.,0.));
#437=DIRECTION('center_axis',(0.,-1.,0.));
#438=DIRECTION('ref_axis',(1.,-4.04768811061249E-17,0.));
#439=DIRECTION('center_axis',(0.,1.,0.));
#440=DIRECTION('ref_axis',(0.,0.,1.));
#441=DIRECTION('center_axis',(0.,-1.,0.));
#442=DIRECTION('ref_axis',(1.,0.,0.));
#443=DIRECTION('center_axis',(0.,-1.,0.));
#444=DIRECTION('ref_axis',(1.,0.,0.));
#445=DIRECTION('center_axis',(0.,-1.,0.));
#446=DIRECTION('ref_axis',(1.,0.,0.));
#447=DIRECTION('center_axis',(0.,-1.,0.));
#448=DIRECTION('ref_axis',(1.,0.,0.));
#449=DIRECTION('center_axis',(0.,1.,0.));
#450=DIRECTION('ref_axis',(0.,0.,1.));
#451=DIRECTION('center_axis',(0.,-1.,0.));
#452=DIRECTION('ref_axis',(1.,0.,0.));
#453=DIRECTION('center_axis',(0.,-1.,0.));
#454=DIRECTION('ref_axis',(1.,0.,0.));
#455=DIRECTION('center_axis',(0.,-1.,0.));
#456=DIRECTION('ref_axis',(1.,0.,0.));
#457=DIRECTION('center_axis',(0.,-1.,0.));
#458=DIRECTION('ref_axis',(1.,-4.04768811061249E-17,0.));
#459=DIRECTION('center_axis',(0.,-1.,0.));
#460=DIRECTION('ref_axis',(1.,-4.04768811061249E-17,0.));
#461=DIRECTION('center_axis',(0.,-1.,0.));
#462=DIRECTION('ref_axis',(0.,0.,-1.));
#463=DIRECTION('center_axis',(0.,-1.,0.));
#464=DIRECTION('ref_axis',(1.,-4.04768811061249E-17,0.));
#465=DIRECTION('center_axis',(0.,-1.,0.));
#466=DIRECTION('ref_axis',(0.,0.,-1.));
#467=DIRECTION('center_axis',(0.,-1.,0.));
#468=DIRECTION('ref_axis',(1.,-4.04768811061249E-17,0.));
#469=DIRECTION('center_axis',(0.,-1.,0.));
#470=DIRECTION('ref_axis',(0.,0.,-1.));
#471=DIRECTION('center_axis',(0.,-1.,0.));
#472=DIRECTION('ref_axis',(1.,-4.04768811061249E-17,0.));
#473=DIRECTION('center_axis',(0.,-1.,0.));
#474=DIRECTION('ref_axis',(0.,0.,-1.));
#475=DIRECTION('center_axis',(0.,-1.,0.));
#476=DIRECTION('ref_axis',(1.,-4.04768811061249E-17,0.));
#477=DIRECTION('center_axis',(0.,-1.,0.));
#478=DIRECTION('ref_axis',(0.,0.,-1.));
#479=DIRECTION('center_axis',(0.,-1.,0.));
#480=DIRECTION('ref_axis',(1.,-4.04768811061249E-17,0.));
#481=DIRECTION('center_axis',(0.,-1.,0.));
#482=DIRECTION('ref_axis',(1.,-4.04768811061249E-17,0.));
#483=DIRECTION('center_axis',(0.,-1.,0.));
#484=DIRECTION('ref_axis',(1.,-4.04768811061249E-17,0.));
#485=DIRECTION('center_axis',(0.,-1.,0.));
#486=DIRECTION('ref_axis',(1.,-4.04768811061249E-17,0.));
#487=DIRECTION('center_axis',(0.,-1.,0.));
#488=DIRECTION('ref_axis',(0.,0.,-1.));
#489=DIRECTION('center_axis',(0.,1.,0.));
#490=DIRECTION('ref_axis',(0.,0.,1.));
#491=DIRECTION('center_axis',(0.,-1.,0.));
#492=DIRECTION('ref_axis',(1.,-4.04768811061249E-17,0.));
#493=DIRECTION('center_axis',(0.,-1.,0.));
#494=DIRECTION('ref_axis',(1.,-4.04768811061249E-17,0.));
#495=CARTESIAN_POINT('',(0.,0.,0.));
#496=CARTESIAN_POINT('Origin',(0.,14.,0.));
#497=CARTESIAN_POINT('',(53.,14.5,6.49062803548097E-15));
#498=CARTESIAN_POINT('Origin',(0.,14.5,0.));
#499=CARTESIAN_POINT('',(54.,13.5,-6.61309271539571E-15));
#500=CARTESIAN_POINT('Origin',(0.,13.5,0.));
#501=CARTESIAN_POINT('Origin',(0.,8.00000000000001,0.));
#502=CARTESIAN_POINT('',(54.,2.50000000000001,6.61309271539571E-15));
#503=CARTESIAN_POINT('Origin',(0.,2.50000000000001,0.));
#504=CARTESIAN_POINT('Origin',(29.525,14.5,0.));
#505=CARTESIAN_POINT('',(5.05,14.5,0.));
#506=CARTESIAN_POINT('Origin',(0.,14.5,0.));
#507=CARTESIAN_POINT('',(8.,14.5,-39.75));
#508=CARTESIAN_POINT('Origin',(8.84964809445935E-31,14.5,-39.75));
#509=CARTESIAN_POINT('',(-31.75,14.5,-3.41370295262325E-15));
#510=CARTESIAN_POINT('Origin',(-39.75,14.5,-2.43398551330537E-15));
#511=CARTESIAN_POINT('',(8.,14.5,39.75));
#512=CARTESIAN_POINT('Origin',(-4.86797102661073E-15,14.5,39.75));
#513=CARTESIAN_POINT('',(47.75,14.5,6.32223910059821E-15));
#514=CARTESIAN_POINT('Origin',(39.75,14.5,7.30195653991609E-15));
#515=CARTESIAN_POINT('Origin',(0.,2.,0.));
#516=CARTESIAN_POINT('',(53.,1.5,-6.49062803548097E-15));
#517=CARTESIAN_POINT('Origin',(0.,1.5,0.));
#518=CARTESIAN_POINT('Origin',(39.75,1.5,0.));
#519=CARTESIAN_POINT('',(25.5,1.5,0.));
#520=CARTESIAN_POINT('Origin',(0.,1.5,0.));
#521=CARTESIAN_POINT('',(8.,1.5,-39.75));
#522=CARTESIAN_POINT('Origin',(8.84964809445935E-31,1.5,-39.75));
#523=CARTESIAN_POINT('',(-31.75,1.5,-3.41370295262325E-15));
#524=CARTESIAN_POINT('Origin',(-39.75,1.5,-2.43398551330537E-15));
#525=CARTESIAN_POINT('',(8.,1.5,39.75));
#526=CARTESIAN_POINT('Origin',(-4.86797102661073E-15,1.5,39.75));
#527=CARTESIAN_POINT('',(47.75,1.5,6.32223910059821E-15));
#528=CARTESIAN_POINT('Origin',(39.75,1.5,7.30195653991609E-15));
#529=CARTESIAN_POINT('Origin',(39.75,14.5,7.30195653991609E-15));
#530=CARTESIAN_POINT('Origin',(-4.86797102661073E-15,14.5,39.75));
#531=CARTESIAN_POINT('Origin',(-39.75,14.5,-2.43398551330537E-15));
#532=CARTESIAN_POINT('Origin',(8.84964809445935E-31,14.5,-39.75));
#533=CARTESIAN_POINT('Origin',(13.5,-2.99602750886332E-15,0.));
#534=CARTESIAN_POINT('',(25.5,1.27485932527438E-15,0.));
#535=CARTESIAN_POINT('Origin',(0.,2.22044604925031E-15,0.));
#536=CARTESIAN_POINT('',(12.5,-4.75772270425772E-16,0.));
#537=CARTESIAN_POINT('Origin',(0.,-4.77048955893622E-16,0.));
#538=CARTESIAN_POINT('Origin',(2.125,12.7,0.));
#539=CARTESIAN_POINT('',(2.75,12.7,0.));
#540=CARTESIAN_POINT('Origin',(0.,12.7,0.));
#541=CARTESIAN_POINT('',(1.5,12.7,0.));
#542=CARTESIAN_POINT('Origin',(0.,12.7,0.));
#543=CARTESIAN_POINT('Origin',(0.,13.2,0.));
#544=CARTESIAN_POINT('',(2.75,13.7,0.));
#545=CARTESIAN_POINT('Origin',(0.,13.7,0.));
#546=CARTESIAN_POINT('Origin',(3.9,13.7,0.));
#547=CARTESIAN_POINT('',(5.05,13.7,0.));
#548=CARTESIAN_POINT('Origin',(0.,13.7,0.));
#549=CARTESIAN_POINT('Origin',(0.,14.1,0.));
#550=CARTESIAN_POINT('Origin',(0.,0.750000000000002,0.));
#551=CARTESIAN_POINT('Origin',(0.,-25.,0.));
#552=CARTESIAN_POINT('',(12.5,-50.,0.));
#553=CARTESIAN_POINT('Origin',(0.,-50.,0.));
#554=CARTESIAN_POINT('Origin',(11.7766110702794,-50.,0.));
#555=CARTESIAN_POINT('',(11.0532221405588,-50.,0.));
#556=CARTESIAN_POINT('Origin',(0.,-50.,0.));
#557=CARTESIAN_POINT('Origin',(0.,-48.3847142876422,0.));
#558=CARTESIAN_POINT('',(10.0431854561289,-49.6452593398531,0.));
#559=CARTESIAN_POINT('Origin',(0.,-49.6452593398531,0.));
#560=CARTESIAN_POINT('Origin',(0.,-50.8378388000802,0.));
#561=CARTESIAN_POINT('',(8.38975325126863,-49.4782895043372,0.));
#562=CARTESIAN_POINT('Origin',(0.,-49.4782895043372,0.));
#563=CARTESIAN_POINT('Origin',(0.,-46.9087948643585,0.));
#564=CARTESIAN_POINT('',(6.09482359329878,-49.6271113863251,0.));
#565=CARTESIAN_POINT('Origin',(0.,-49.6271113863251,0.));
#566=CARTESIAN_POINT('Origin',(0.,-52.6112932489099,0.));
#567=CARTESIAN_POINT('',(3.81400036163657,-49.6802761525472,0.));
#568=CARTESIAN_POINT('',(0.,-49.6802761525472,3.81400036163656));
#569=CARTESIAN_POINT('Origin',(0.,-49.6802761525472,0.));
#570=CARTESIAN_POINT('Origin',(0.,-49.6802761525472,0.));
#571=CARTESIAN_POINT('Ctrl Pts',(0.,-49.6802761525472,3.81400036163656));
#572=CARTESIAN_POINT('Ctrl Pts',(-3.81400036163656,-49.6802761525472,3.81400036163656));
#573=CARTESIAN_POINT('Ctrl Pts',(-3.81400036163656,-49.6802761525472,0.));
#574=CARTESIAN_POINT('Ctrl Pts',(-3.81400036163656,-49.6802761525472,-3.81400036163656));
#575=CARTESIAN_POINT('Ctrl Pts',(0.,-49.6802761525472,-3.81400036163656));
#576=CARTESIAN_POINT('Ctrl Pts',(3.81400036163656,-49.6802761525472,-3.81400036163656));
#577=CARTESIAN_POINT('Ctrl Pts',(3.81400036163656,-49.6802761525472,0.));
#578=CARTESIAN_POINT('Ctrl Pts',(3.81400036163656,-49.6802761525472,3.81400036163656));
#579=CARTESIAN_POINT('Ctrl Pts',(0.,-49.6802761525472,3.81400036163656));
#580=CARTESIAN_POINT('Ctrl Pts',(0.,-50.,3.03910908426206));
#581=CARTESIAN_POINT('Ctrl Pts',(-3.03910908426206,-50.,3.03910908426206));
#582=CARTESIAN_POINT('Ctrl Pts',(-3.03910908426206,-50.,0.));
#583=CARTESIAN_POINT('Ctrl Pts',(-3.03910908426206,-50.,-3.03910908426206));
#584=CARTESIAN_POINT('Ctrl Pts',(0.,-50.,-3.03910908426206));
#585=CARTESIAN_POINT('Ctrl Pts',(3.03910908426206,-50.,-3.03910908426206));
#586=CARTESIAN_POINT('Ctrl Pts',(3.03910908426206,-50.,0.));
#587=CARTESIAN_POINT('Ctrl Pts',(3.03910908426206,-50.,3.03910908426206));
#588=CARTESIAN_POINT('Ctrl Pts',(0.,-50.,3.03910908426206));
#589=CARTESIAN_POINT('Ctrl Pts',(0.,-50.,2.20084908260319));
#590=CARTESIAN_POINT('Ctrl Pts',(-2.20084908260319,-50.,2.20084908260319));
#591=CARTESIAN_POINT('Ctrl Pts',(-2.20084908260319,-50.,0.));
#592=CARTESIAN_POINT('Ctrl Pts',(-2.20084908260319,-50.,-2.20084908260319));
#593=CARTESIAN_POINT('Ctrl Pts',(0.,-50.,-2.20084908260319));
#594=CARTESIAN_POINT('Ctrl Pts',(2.20084908260319,-50.,-2.20084908260319));
#595=CARTESIAN_POINT('Ctrl Pts',(2.20084908260319,-50.,0.));
#596=CARTESIAN_POINT('Ctrl Pts',(2.20084908260319,-50.,2.20084908260319));
#597=CARTESIAN_POINT('Ctrl Pts',(0.,-50.,2.20084908260319));
#598=CARTESIAN_POINT('',(2.20084908260319,-50.,0.));
#599=CARTESIAN_POINT('',(0.,-50.,2.20084908260319));
#600=CARTESIAN_POINT('Origin',(0.,-50.,0.));
#601=CARTESIAN_POINT('Origin',(0.,-50.,0.));
#602=CARTESIAN_POINT('Ctrl Pts',(0.,-50.,2.20084908260319));
#603=CARTESIAN_POINT('Ctrl Pts',(0.,-50.,3.03910908426206));
#604=CARTESIAN_POINT('Ctrl Pts',(0.,-49.6802761525472,3.81400036163656));
#605=CARTESIAN_POINT('Origin',(0.75,-50.,0.));
#606=CARTESIAN_POINT('Origin',(0.750000000000001,-46.3638520482211,0.));
#607=CARTESIAN_POINT('',(1.5,-46.3638520482211,0.));
#608=CARTESIAN_POINT('Origin',(0.,-46.3638520482211,0.));
#609=CARTESIAN_POINT('Origin',(0.,-23.1819260241106,0.));
#610=UNCERTAINTY_MEASURE_WITH_UNIT(LENGTH_MEASURE(0.01),#614,
'DISTANCE_ACCURACY_VALUE',
'Maximum model space distance between geometric entities at asserted c
onnectivities');
#611=UNCERTAINTY_MEASURE_WITH_UNIT(LENGTH_MEASURE(1.E-6),#614,
'DISTANCE_ACCURACY_VALUE',
'Maximum model space distance between geometric entities at asserted c
onnectivities');
#612=(
GEOMETRIC_REPRESENTATION_CONTEXT(3)
GLOBAL_UNCERTAINTY_ASSIGNED_CONTEXT((#610))
GLOBAL_UNIT_ASSIGNED_CONTEXT((#614,#617,#615))
REPRESENTATION_CONTEXT('','3D')
);
#613=(
GEOMETRIC_REPRESENTATION_CONTEXT(3)
GLOBAL_UNCERTAINTY_ASSIGNED_CONTEXT((#611))
GLOBAL_UNIT_ASSIGNED_CONTEXT((#614,#617,#615))
REPRESENTATION_CONTEXT('','3D')
);
#614=(
LENGTH_UNIT()
NAMED_UNIT(*)
SI_UNIT(.MILLI.,.METRE.)
);
#615=(
NAMED_UNIT(*)
SI_UNIT($,.STERADIAN.)
SOLID_ANGLE_UNIT()
);
#616=DIMENSIONAL_EXPONENTS(0.,0.,0.,0.,0.,0.,0.);
#617=(
CONVERSION_BASED_UNIT('degree',#619)
NAMED_UNIT(#616)
PLANE_ANGLE_UNIT()
);
#618=(
NAMED_UNIT(*)
PLANE_ANGLE_UNIT()
SI_UNIT($,.RADIAN.)
);
#619=PLANE_ANGLE_MEASURE_WITH_UNIT(PLANE_ANGLE_MEASURE(0.01745329252),#618);
#620=SHAPE_DEFINITION_REPRESENTATION(#621,#622);
#621=PRODUCT_DEFINITION_SHAPE('',$,#624);
#622=SHAPE_REPRESENTATION('',(#330),#612);
#623=PRODUCT_DEFINITION_CONTEXT('part definition',#628,'design');
#624=PRODUCT_DEFINITION('A0012934','A0012934',#625,#623);
#625=PRODUCT_DEFINITION_FORMATION('',$,#630);
#626=PRODUCT_RELATED_PRODUCT_CATEGORY('A0012934','A0012934',(#630));
#627=APPLICATION_PROTOCOL_DEFINITION('international standard',
'automotive_design',2009,#628);
#628=APPLICATION_CONTEXT(
'Core Data for Automotive Mechanical Design Process');
#629=PRODUCT_CONTEXT('part definition',#628,'mechanical');
#630=PRODUCT('A0012934','A0012934',$,(#629));
#631=PRESENTATION_STYLE_ASSIGNMENT((#632));
#632=SURFACE_STYLE_USAGE(.BOTH.,#633);
#633=SURFACE_SIDE_STYLE($,(#634));
#634=SURFACE_STYLE_FILL_AREA(#635);
#635=FILL_AREA_STYLE($,(#636));
#636=FILL_AREA_STYLE_COLOUR($,#637);
#637=COLOUR_RGB('',0.549019607843137,0.549019607843137,0.592156862745098);
ENDSEC;
END-ISO-10303-21;
