ISO-10303-21;
HEADER;
/* Generated by software containing ST-Developer
 * from STEP Tools, Inc. (www.steptools.com) 
 */

FILE_DESCRIPTION(
/* description */ (''),
/* implementation_level */ '2;1');

FILE_NAME(
/* name */ 
'J:\\AM_Zeichnung\\Inventor\\PROJEKT_STAMMORDNER\\Druckmittler\\Druckm
ittler_Baugruppen\\MD60\\Step\\solid\\31913W.stp',
/* time_stamp */ '2018-02-05T12:16:58+01:00',
/* author */ ('acgl'),
/* organization */ (''),
/* preprocessor_version */ 'ST-DEVELOPER v15.6',
/* originating_system */ 'Autodesk Inventor 2015',
/* authorisation */ '');

FILE_SCHEMA (('AUTOMOTIVE_DESIGN { 1 0 10303 214 3 1 1 }'));
ENDSEC;

DATA;
#10=MECHANICAL_DESIGN_GEOMETRIC_PRESENTATION_REPRESENTATION('',(#165,#168,
#169,#166,#167,#171,#170,#178,#173,#176,#175,#177,#174,#179,#181,#180,#172),
#345);
#11=SHAPE_REPRESENTATION_RELATIONSHIP('SRR','None',#355,#12);
#12=ADVANCED_BREP_SHAPE_REPRESENTATION($,(#13),#344);
#13=MANIFOLD_SOLID_BREP('Volumenk\X\F6rper1',#198);
#14=CONICAL_SURFACE('',#209,1.10125,70.0000000000001);
#15=CONICAL_SURFACE('',#217,0.9025,45.);
#16=CONICAL_SURFACE('',#228,0.913047642453635,35.);
#17=TOROIDAL_SURFACE('',#206,1.2,0.05);
#18=TOROIDAL_SURFACE('',#213,1.0525,0.1);
#19=TOROIDAL_SURFACE('',#226,1.0125,0.08);
#20=FACE_BOUND('',#57,.T.);
#21=FACE_BOUND('',#60,.T.);
#22=FACE_BOUND('',#62,.T.);
#23=FACE_BOUND('',#64,.T.);
#24=FACE_BOUND('',#66,.T.);
#25=FACE_BOUND('',#68,.T.);
#26=FACE_BOUND('',#70,.T.);
#27=FACE_BOUND('',#72,.T.);
#28=FACE_BOUND('',#74,.T.);
#29=FACE_BOUND('',#76,.T.);
#30=FACE_BOUND('',#78,.T.);
#31=FACE_BOUND('',#80,.T.);
#32=FACE_BOUND('',#82,.T.);
#33=FACE_BOUND('',#84,.T.);
#34=CYLINDRICAL_SURFACE('',#202,0.86);
#35=CYLINDRICAL_SURFACE('',#211,1.25);
#36=CYLINDRICAL_SURFACE('',#215,0.9525);
#37=CYLINDRICAL_SURFACE('',#221,0.505);
#38=CYLINDRICAL_SURFACE('',#224,1.0925);
#39=FACE_OUTER_BOUND('',#55,.T.);
#40=FACE_OUTER_BOUND('',#56,.T.);
#41=FACE_OUTER_BOUND('',#58,.T.);
#42=FACE_OUTER_BOUND('',#59,.T.);
#43=FACE_OUTER_BOUND('',#61,.T.);
#44=FACE_OUTER_BOUND('',#63,.T.);
#45=FACE_OUTER_BOUND('',#65,.T.);
#46=FACE_OUTER_BOUND('',#67,.T.);
#47=FACE_OUTER_BOUND('',#69,.T.);
#48=FACE_OUTER_BOUND('',#71,.T.);
#49=FACE_OUTER_BOUND('',#73,.T.);
#50=FACE_OUTER_BOUND('',#75,.T.);
#51=FACE_OUTER_BOUND('',#77,.T.);
#52=FACE_OUTER_BOUND('',#79,.T.);
#53=FACE_OUTER_BOUND('',#81,.T.);
#54=FACE_OUTER_BOUND('',#83,.T.);
#55=EDGE_LOOP('',(#130));
#56=EDGE_LOOP('',(#131));
#57=EDGE_LOOP('',(#132));
#58=EDGE_LOOP('',(#133));
#59=EDGE_LOOP('',(#134));
#60=EDGE_LOOP('',(#135));
#61=EDGE_LOOP('',(#136));
#62=EDGE_LOOP('',(#137));
#63=EDGE_LOOP('',(#138));
#64=EDGE_LOOP('',(#139));
#65=EDGE_LOOP('',(#140));
#66=EDGE_LOOP('',(#141));
#67=EDGE_LOOP('',(#142));
#68=EDGE_LOOP('',(#143));
#69=EDGE_LOOP('',(#144));
#70=EDGE_LOOP('',(#145));
#71=EDGE_LOOP('',(#146));
#72=EDGE_LOOP('',(#147));
#73=EDGE_LOOP('',(#148));
#74=EDGE_LOOP('',(#149));
#75=EDGE_LOOP('',(#150));
#76=EDGE_LOOP('',(#151));
#77=EDGE_LOOP('',(#152));
#78=EDGE_LOOP('',(#153));
#79=EDGE_LOOP('',(#154));
#80=EDGE_LOOP('',(#155));
#81=EDGE_LOOP('',(#156));
#82=EDGE_LOOP('',(#157));
#83=EDGE_LOOP('',(#158));
#84=EDGE_LOOP('',(#159));
#85=CIRCLE('',#201,0.505);
#86=CIRCLE('',#203,0.86);
#87=CIRCLE('',#204,0.86);
#88=CIRCLE('',#207,1.21710100716628);
#89=CIRCLE('',#208,1.25);
#90=CIRCLE('',#210,1.01829798566743);
#91=CIRCLE('',#212,1.25);
#92=CIRCLE('',#214,0.9525);
#93=CIRCLE('',#216,0.9525);
#94=CIRCLE('',#218,0.8525);
#95=CIRCLE('',#220,0.505);
#96=CIRCLE('',#223,1.0925);
#97=CIRCLE('',#225,1.0925);
#98=CIRCLE('',#227,0.946967836456881);
#99=CIRCLE('',#229,0.879127448450388);
#100=VERTEX_POINT('',#297);
#101=VERTEX_POINT('',#300);
#102=VERTEX_POINT('',#302);
#103=VERTEX_POINT('',#306);
#104=VERTEX_POINT('',#308);
#105=VERTEX_POINT('',#311);
#106=VERTEX_POINT('',#314);
#107=VERTEX_POINT('',#317);
#108=VERTEX_POINT('',#320);
#109=VERTEX_POINT('',#323);
#110=VERTEX_POINT('',#326);
#111=VERTEX_POINT('',#330);
#112=VERTEX_POINT('',#333);
#113=VERTEX_POINT('',#336);
#114=VERTEX_POINT('',#339);
#115=EDGE_CURVE('',#100,#100,#85,.T.);
#116=EDGE_CURVE('',#101,#101,#86,.T.);
#117=EDGE_CURVE('',#102,#102,#87,.T.);
#118=EDGE_CURVE('',#103,#103,#88,.T.);
#119=EDGE_CURVE('',#104,#104,#89,.T.);
#120=EDGE_CURVE('',#105,#105,#90,.T.);
#121=EDGE_CURVE('',#106,#106,#91,.T.);
#122=EDGE_CURVE('',#107,#107,#92,.T.);
#123=EDGE_CURVE('',#108,#108,#93,.T.);
#124=EDGE_CURVE('',#109,#109,#94,.T.);
#125=EDGE_CURVE('',#110,#110,#95,.T.);
#126=EDGE_CURVE('',#111,#111,#96,.T.);
#127=EDGE_CURVE('',#112,#112,#97,.T.);
#128=EDGE_CURVE('',#113,#113,#98,.T.);
#129=EDGE_CURVE('',#114,#114,#99,.T.);
#130=ORIENTED_EDGE('',*,*,#115,.F.);
#131=ORIENTED_EDGE('',*,*,#116,.F.);
#132=ORIENTED_EDGE('',*,*,#117,.F.);
#133=ORIENTED_EDGE('',*,*,#116,.T.);
#134=ORIENTED_EDGE('',*,*,#118,.T.);
#135=ORIENTED_EDGE('',*,*,#119,.T.);
#136=ORIENTED_EDGE('',*,*,#120,.F.);
#137=ORIENTED_EDGE('',*,*,#118,.F.);
#138=ORIENTED_EDGE('',*,*,#121,.F.);
#139=ORIENTED_EDGE('',*,*,#119,.F.);
#140=ORIENTED_EDGE('',*,*,#122,.T.);
#141=ORIENTED_EDGE('',*,*,#120,.T.);
#142=ORIENTED_EDGE('',*,*,#123,.F.);
#143=ORIENTED_EDGE('',*,*,#122,.F.);
#144=ORIENTED_EDGE('',*,*,#124,.T.);
#145=ORIENTED_EDGE('',*,*,#123,.T.);
#146=ORIENTED_EDGE('',*,*,#124,.F.);
#147=ORIENTED_EDGE('',*,*,#125,.T.);
#148=ORIENTED_EDGE('',*,*,#125,.F.);
#149=ORIENTED_EDGE('',*,*,#115,.T.);
#150=ORIENTED_EDGE('',*,*,#121,.T.);
#151=ORIENTED_EDGE('',*,*,#126,.F.);
#152=ORIENTED_EDGE('',*,*,#127,.F.);
#153=ORIENTED_EDGE('',*,*,#126,.T.);
#154=ORIENTED_EDGE('',*,*,#128,.F.);
#155=ORIENTED_EDGE('',*,*,#127,.T.);
#156=ORIENTED_EDGE('',*,*,#129,.F.);
#157=ORIENTED_EDGE('',*,*,#128,.T.);
#158=ORIENTED_EDGE('',*,*,#129,.T.);
#159=ORIENTED_EDGE('',*,*,#117,.T.);
#160=PLANE('',#200);
#161=PLANE('',#205);
#162=PLANE('',#219);
#163=PLANE('',#222);
#164=PLANE('',#230);
#165=STYLED_ITEM('',(#365),#182);
#166=STYLED_ITEM('',(#366),#183);
#167=STYLED_ITEM('',(#366),#184);
#168=STYLED_ITEM('',(#365),#185);
#169=STYLED_ITEM('',(#365),#186);
#170=STYLED_ITEM('',(#365),#187);
#171=STYLED_ITEM('',(#365),#188);
#172=STYLED_ITEM('',(#365),#189);
#173=STYLED_ITEM('',(#365),#190);
#174=STYLED_ITEM('',(#365),#191);
#175=STYLED_ITEM('',(#365),#192);
#176=STYLED_ITEM('',(#365),#193);
#177=STYLED_ITEM('',(#365),#194);
#178=STYLED_ITEM('',(#365),#195);
#179=STYLED_ITEM('',(#365),#196);
#180=STYLED_ITEM('',(#365),#197);
#181=STYLED_ITEM('',(#364),#13);
#182=ADVANCED_FACE('',(#39),#160,.F.);
#183=ADVANCED_FACE('',(#40,#20),#34,.T.);
#184=ADVANCED_FACE('',(#41),#161,.T.);
#185=ADVANCED_FACE('',(#42,#21),#17,.T.);
#186=ADVANCED_FACE('',(#43,#22),#14,.T.);
#187=ADVANCED_FACE('',(#44,#23),#35,.T.);
#188=ADVANCED_FACE('',(#45,#24),#18,.F.);
#189=ADVANCED_FACE('',(#46,#25),#36,.T.);
#190=ADVANCED_FACE('',(#47,#26),#15,.T.);
#191=ADVANCED_FACE('',(#48,#27),#162,.T.);
#192=ADVANCED_FACE('',(#49,#28),#37,.F.);
#193=ADVANCED_FACE('',(#50,#29),#163,.T.);
#194=ADVANCED_FACE('',(#51,#30),#38,.F.);
#195=ADVANCED_FACE('',(#52,#31),#19,.F.);
#196=ADVANCED_FACE('',(#53,#32),#16,.T.);
#197=ADVANCED_FACE('',(#54,#33),#164,.T.);
#198=CLOSED_SHELL('',(#182,#183,#184,#185,#186,#187,#188,#189,#190,#191,
#192,#193,#194,#195,#196,#197));
#199=AXIS2_PLACEMENT_3D('placement',#295,#231,#232);
#200=AXIS2_PLACEMENT_3D('',#296,#233,#234);
#201=AXIS2_PLACEMENT_3D('',#298,#235,#236);
#202=AXIS2_PLACEMENT_3D('',#299,#237,#238);
#203=AXIS2_PLACEMENT_3D('',#301,#239,#240);
#204=AXIS2_PLACEMENT_3D('',#303,#241,#242);
#205=AXIS2_PLACEMENT_3D('',#304,#243,#244);
#206=AXIS2_PLACEMENT_3D('',#305,#245,#246);
#207=AXIS2_PLACEMENT_3D('',#307,#247,#248);
#208=AXIS2_PLACEMENT_3D('',#309,#249,#250);
#209=AXIS2_PLACEMENT_3D('',#310,#251,#252);
#210=AXIS2_PLACEMENT_3D('',#312,#253,#254);
#211=AXIS2_PLACEMENT_3D('',#313,#255,#256);
#212=AXIS2_PLACEMENT_3D('',#315,#257,#258);
#213=AXIS2_PLACEMENT_3D('',#316,#259,#260);
#214=AXIS2_PLACEMENT_3D('',#318,#261,#262);
#215=AXIS2_PLACEMENT_3D('',#319,#263,#264);
#216=AXIS2_PLACEMENT_3D('',#321,#265,#266);
#217=AXIS2_PLACEMENT_3D('',#322,#267,#268);
#218=AXIS2_PLACEMENT_3D('',#324,#269,#270);
#219=AXIS2_PLACEMENT_3D('',#325,#271,#272);
#220=AXIS2_PLACEMENT_3D('',#327,#273,#274);
#221=AXIS2_PLACEMENT_3D('',#328,#275,#276);
#222=AXIS2_PLACEMENT_3D('',#329,#277,#278);
#223=AXIS2_PLACEMENT_3D('',#331,#279,#280);
#224=AXIS2_PLACEMENT_3D('',#332,#281,#282);
#225=AXIS2_PLACEMENT_3D('',#334,#283,#284);
#226=AXIS2_PLACEMENT_3D('',#335,#285,#286);
#227=AXIS2_PLACEMENT_3D('',#337,#287,#288);
#228=AXIS2_PLACEMENT_3D('',#338,#289,#290);
#229=AXIS2_PLACEMENT_3D('',#340,#291,#292);
#230=AXIS2_PLACEMENT_3D('',#341,#293,#294);
#231=DIRECTION('axis',(0.,0.,1.));
#232=DIRECTION('refdir',(1.,0.,0.));
#233=DIRECTION('center_axis',(0.,-1.,0.));
#234=DIRECTION('ref_axis',(0.,0.,-1.));
#235=DIRECTION('center_axis',(0.,-1.,0.));
#236=DIRECTION('ref_axis',(1.,0.,0.));
#237=DIRECTION('center_axis',(0.,-1.,0.));
#238=DIRECTION('ref_axis',(1.,-1.21561565866836E-17,0.));
#239=DIRECTION('center_axis',(0.,-1.,0.));
#240=DIRECTION('ref_axis',(1.,-1.21561565866836E-17,0.));
#241=DIRECTION('center_axis',(0.,1.,0.));
#242=DIRECTION('ref_axis',(1.,-1.21561565866836E-17,0.));
#243=DIRECTION('center_axis',(0.,-1.,0.));
#244=DIRECTION('ref_axis',(0.,0.,-1.));
#245=DIRECTION('center_axis',(0.,-1.,0.));
#246=DIRECTION('ref_axis',(0.,0.,-1.));
#247=DIRECTION('center_axis',(0.,-1.,0.));
#248=DIRECTION('ref_axis',(-1.,0.,0.));
#249=DIRECTION('center_axis',(0.,1.,0.));
#250=DIRECTION('ref_axis',(-1.,0.,1.22464679914735E-16));
#251=DIRECTION('center_axis',(0.,-1.,0.));
#252=DIRECTION('ref_axis',(1.,0.,0.));
#253=DIRECTION('center_axis',(0.,1.,0.));
#254=DIRECTION('ref_axis',(-1.,0.,0.));
#255=DIRECTION('center_axis',(0.,-1.,0.));
#256=DIRECTION('ref_axis',(1.,0.,0.));
#257=DIRECTION('center_axis',(0.,-1.,0.));
#258=DIRECTION('ref_axis',(1.,0.,0.));
#259=DIRECTION('center_axis',(0.,-1.,0.));
#260=DIRECTION('ref_axis',(0.,0.,-1.));
#261=DIRECTION('center_axis',(0.,-1.,0.));
#262=DIRECTION('ref_axis',(-1.,0.,1.22464679914735E-16));
#263=DIRECTION('center_axis',(0.,-1.,0.));
#264=DIRECTION('ref_axis',(1.,0.,0.));
#265=DIRECTION('center_axis',(0.,1.,0.));
#266=DIRECTION('ref_axis',(-1.,0.,0.));
#267=DIRECTION('center_axis',(0.,-1.,0.));
#268=DIRECTION('ref_axis',(-1.,0.,0.));
#269=DIRECTION('center_axis',(0.,-1.,0.));
#270=DIRECTION('ref_axis',(-1.,0.,0.));
#271=DIRECTION('center_axis',(0.,1.,0.));
#272=DIRECTION('ref_axis',(0.,0.,1.));
#273=DIRECTION('center_axis',(0.,-1.,0.));
#274=DIRECTION('ref_axis',(1.,0.,0.));
#275=DIRECTION('center_axis',(0.,-1.,0.));
#276=DIRECTION('ref_axis',(1.,0.,0.));
#277=DIRECTION('center_axis',(0.,-1.,0.));
#278=DIRECTION('ref_axis',(0.,0.,-1.));
#279=DIRECTION('center_axis',(0.,-1.,0.));
#280=DIRECTION('ref_axis',(1.,0.,0.));
#281=DIRECTION('center_axis',(0.,-1.,0.));
#282=DIRECTION('ref_axis',(1.,0.,0.));
#283=DIRECTION('center_axis',(0.,-1.,0.));
#284=DIRECTION('ref_axis',(1.,0.,0.));
#285=DIRECTION('center_axis',(0.,-1.,0.));
#286=DIRECTION('ref_axis',(0.,0.,-1.));
#287=DIRECTION('center_axis',(0.,-1.,0.));
#288=DIRECTION('ref_axis',(1.,0.,0.));
#289=DIRECTION('center_axis',(0.,1.,0.));
#290=DIRECTION('ref_axis',(1.,0.,0.));
#291=DIRECTION('center_axis',(0.,-1.,0.));
#292=DIRECTION('ref_axis',(1.,0.,0.));
#293=DIRECTION('center_axis',(0.,-1.,0.));
#294=DIRECTION('ref_axis',(0.,0.,-1.));
#295=CARTESIAN_POINT('',(0.,0.,0.));
#296=CARTESIAN_POINT('Origin',(0.,1.32,0.));
#297=CARTESIAN_POINT('',(0.505,1.32,0.));
#298=CARTESIAN_POINT('Origin',(0.,1.32,0.));
#299=CARTESIAN_POINT('Origin',(1.0332733098681E-18,0.0841044832437122,0.));
#300=CARTESIAN_POINT('',(0.86,0.0832089664874244,0.));
#301=CARTESIAN_POINT('Origin',(1.0332733098681E-18,0.0832089664874244,0.));
#302=CARTESIAN_POINT('',(0.86,0.085,0.));
#303=CARTESIAN_POINT('Origin',(1.0332733098681E-18,0.085,0.));
#304=CARTESIAN_POINT('Origin',(0.805,0.0832089664874256,0.));
#305=CARTESIAN_POINT('Origin',(0.,0.329989623089514,0.));
#306=CARTESIAN_POINT('',(1.21710100716628,0.37697425412881,2.46519032881566E-32));
#307=CARTESIAN_POINT('Origin',(0.,0.37697425412881,-1.49051885266521E-16));
#308=CARTESIAN_POINT('',(1.25,0.329989623089514,-3.06161699786838E-16));
#309=CARTESIAN_POINT('Origin',(0.,0.329989623089514,0.));
#310=CARTESIAN_POINT('Origin',(0.,0.419140572347097,0.));
#311=CARTESIAN_POINT('',(1.01829798566743,0.449332636436575,-2.49411073745164E-16));
#312=CARTESIAN_POINT('Origin',(0.,0.449332636436575,-1.24705536872582E-16));
#313=CARTESIAN_POINT('Origin',(0.,0.1825,0.));
#314=CARTESIAN_POINT('',(1.25,2.04853266470742E-17,0.));
#315=CARTESIAN_POINT('Origin',(0.,0.,0.));
#316=CARTESIAN_POINT('Origin',(0.,0.543301898515166,0.));
#317=CARTESIAN_POINT('',(0.9525,0.543301898515166,0.));
#318=CARTESIAN_POINT('Origin',(0.,0.543301898515166,0.));
#319=CARTESIAN_POINT('Origin',(0.,0.936640572347098,0.));
#320=CARTESIAN_POINT('',(0.9525,1.3,-1.16647607618785E-16));
#321=CARTESIAN_POINT('Origin',(0.,1.3,0.));
#322=CARTESIAN_POINT('Origin',(0.,1.35,0.));
#323=CARTESIAN_POINT('',(0.8525,1.4,1.04401139627312E-16));
#324=CARTESIAN_POINT('Origin',(0.,1.4,0.));
#325=CARTESIAN_POINT('Origin',(0.72875,1.4,0.));
#326=CARTESIAN_POINT('',(0.505,1.4,0.));
#327=CARTESIAN_POINT('Origin',(0.,1.4,0.));
#328=CARTESIAN_POINT('Origin',(0.,1.36,0.));
#329=CARTESIAN_POINT('Origin',(1.17125,1.02426633235371E-17,0.));
#330=CARTESIAN_POINT('',(1.0925,0.,0.));
#331=CARTESIAN_POINT('Origin',(0.,0.,0.));
#332=CARTESIAN_POINT('Origin',(0.,0.0680000000000001,0.));
#333=CARTESIAN_POINT('',(1.0925,0.136,0.));
#334=CARTESIAN_POINT('Origin',(0.,0.136,0.));
#335=CARTESIAN_POINT('Origin',(0.,0.136,0.));
#336=CARTESIAN_POINT('',(0.946967836456881,0.181886114908084,0.));
#337=CARTESIAN_POINT('Origin',(0.,0.181886114908084,0.));
#338=CARTESIAN_POINT('Origin',(0.,0.133443057454042,0.));
#339=CARTESIAN_POINT('',(0.879127448450388,0.085,0.));
#340=CARTESIAN_POINT('Origin',(0.,0.085,0.));
#341=CARTESIAN_POINT('Origin',(0.814563724225194,0.085,0.));
#342=UNCERTAINTY_MEASURE_WITH_UNIT(LENGTH_MEASURE(0.001),#346,
'DISTANCE_ACCURACY_VALUE',
'Maximum model space distance between geometric entities at asserted c
onnectivities');
#343=UNCERTAINTY_MEASURE_WITH_UNIT(LENGTH_MEASURE(1.E-6),#347,
'DISTANCE_ACCURACY_VALUE',
'Maximum model space distance between geometric entities at asserted c
onnectivities');
#344=(
GEOMETRIC_REPRESENTATION_CONTEXT(3)
GLOBAL_UNCERTAINTY_ASSIGNED_CONTEXT((#342))
GLOBAL_UNIT_ASSIGNED_CONTEXT((#346,#350,#348))
REPRESENTATION_CONTEXT('','3D')
);
#345=(
GEOMETRIC_REPRESENTATION_CONTEXT(3)
GLOBAL_UNCERTAINTY_ASSIGNED_CONTEXT((#343))
GLOBAL_UNIT_ASSIGNED_CONTEXT((#347,#350,#348))
REPRESENTATION_CONTEXT('','3D')
);
#346=(
LENGTH_UNIT()
NAMED_UNIT(*)
SI_UNIT(.CENTI.,.METRE.)
);
#347=(
LENGTH_UNIT()
NAMED_UNIT(*)
SI_UNIT(.MILLI.,.METRE.)
);
#348=(
NAMED_UNIT(*)
SI_UNIT($,.STERADIAN.)
SOLID_ANGLE_UNIT()
);
#349=DIMENSIONAL_EXPONENTS(0.,0.,0.,0.,0.,0.,0.);
#350=(
CONVERSION_BASED_UNIT('degree',#352)
NAMED_UNIT(#349)
PLANE_ANGLE_UNIT()
);
#351=(
NAMED_UNIT(*)
PLANE_ANGLE_UNIT()
SI_UNIT($,.RADIAN.)
);
#352=PLANE_ANGLE_MEASURE_WITH_UNIT(PLANE_ANGLE_MEASURE(0.01745329252),#351);
#353=SHAPE_DEFINITION_REPRESENTATION(#354,#355);
#354=PRODUCT_DEFINITION_SHAPE('',$,#357);
#355=SHAPE_REPRESENTATION('',(#199),#344);
#356=PRODUCT_DEFINITION_CONTEXT('part definition',#361,'design');
#357=PRODUCT_DEFINITION('31913W','31913W',#358,#356);
#358=PRODUCT_DEFINITION_FORMATION('',$,#363);
#359=PRODUCT_RELATED_PRODUCT_CATEGORY('31913W','31913W',(#363));
#360=APPLICATION_PROTOCOL_DEFINITION('international standard',
'automotive_design',2009,#361);
#361=APPLICATION_CONTEXT(
'Core Data for Automotive Mechanical Design Process');
#362=PRODUCT_CONTEXT('part definition',#361,'mechanical');
#363=PRODUCT('31913W','31913W',$,(#362));
#364=PRESENTATION_STYLE_ASSIGNMENT((#367));
#365=PRESENTATION_STYLE_ASSIGNMENT((#368));
#366=PRESENTATION_STYLE_ASSIGNMENT((#369));
#367=SURFACE_STYLE_USAGE(.BOTH.,#370);
#368=SURFACE_STYLE_USAGE(.BOTH.,#371);
#369=SURFACE_STYLE_USAGE(.BOTH.,#372);
#370=SURFACE_SIDE_STYLE($,(#373));
#371=SURFACE_SIDE_STYLE($,(#374));
#372=SURFACE_SIDE_STYLE($,(#375));
#373=SURFACE_STYLE_FILL_AREA(#376);
#374=SURFACE_STYLE_FILL_AREA(#377);
#375=SURFACE_STYLE_FILL_AREA(#378);
#376=FILL_AREA_STYLE($,(#379));
#377=FILL_AREA_STYLE($,(#380));
#378=FILL_AREA_STYLE($,(#381));
#379=FILL_AREA_STYLE_COLOUR($,#382);
#380=FILL_AREA_STYLE_COLOUR($,#383);
#381=FILL_AREA_STYLE_COLOUR($,#384);
#382=COLOUR_RGB('',0.749019607843137,0.749019607843137,0.749019607843137);
#383=COLOUR_RGB('',0.549019607843137,0.549019607843137,0.592156862745098);
#384=COLOUR_RGB('',0.549019607843137,0.549019607843137,0.592156862745098);
ENDSEC;
END-ISO-10303-21;
