ISO-10303-21;
HEADER;
/* Generated by software containing ST-Developer
 * from STEP Tools, Inc. (www.steptools.com) 
 */

FILE_DESCRIPTION(
/* description */ (''),
/* implementation_level */ '2;1');

FILE_NAME(
/* name */ 
'J:\\AM_Zeichnung\\Inventor\\PROJEKT_STAMMORDNER\\Druckmittler\\Druckm
ittler_Baugruppen\\MD56\\Step\\solid\\31413W.stp',
/* time_stamp */ '2018-02-05T13:02:52+01:00',
/* author */ ('acgl'),
/* organization */ (''),
/* preprocessor_version */ 'ST-DEVELOPER v15.6',
/* originating_system */ 'Autodesk Inventor 2015',
/* authorisation */ '');

FILE_SCHEMA (('AUTOMOTIVE_DESIGN { 1 0 10303 214 3 1 1 }'));
ENDSEC;

DATA;
#10=MECHANICAL_DESIGN_GEOMETRIC_PRESENTATION_REPRESENTATION('',(#249,#254,
#250,#253,#255,#251,#252,#256,#259,#257,#261,#258,#260,#241,#244,#243,#242,
#245,#247,#246,#248),#485);
#11=SHAPE_REPRESENTATION_RELATIONSHIP('SRR','None',#495,#12);
#12=ADVANCED_BREP_SHAPE_REPRESENTATION($,(#13),#484);
#13=MANIFOLD_SOLID_BREP('Volumenk\X\F6rper1',#282);
#14=CYLINDRICAL_SURFACE('',#298,7.);
#15=CYLINDRICAL_SURFACE('',#303,4.37);
#16=CYLINDRICAL_SURFACE('',#310,0.55);
#17=CYLINDRICAL_SURFACE('',#311,0.55);
#18=CYLINDRICAL_SURFACE('',#312,0.55);
#19=CYLINDRICAL_SURFACE('',#313,0.55);
#20=CYLINDRICAL_SURFACE('',#314,0.505);
#21=CYLINDRICAL_SURFACE('',#318,0.275);
#22=CYLINDRICAL_SURFACE('',#321,4.165);
#23=CONICAL_SURFACE('',#289,6.9,45.);
#24=CONICAL_SURFACE('',#323,4.13937822173509,45.0000000000002);
#25=PLANE('',#287);
#26=PLANE('',#292);
#27=PLANE('',#305);
#28=PLANE('',#316);
#29=PLANE('',#320);
#30=PLANE('',#326);
#31=FACE_BOUND('',#78,.T.);
#32=FACE_BOUND('',#81,.T.);
#33=FACE_BOUND('',#83,.T.);
#34=FACE_BOUND('',#84,.T.);
#35=FACE_BOUND('',#85,.T.);
#36=FACE_BOUND('',#86,.T.);
#37=FACE_BOUND('',#87,.T.);
#38=FACE_BOUND('',#89,.T.);
#39=FACE_BOUND('',#91,.T.);
#40=FACE_BOUND('',#93,.T.);
#41=FACE_BOUND('',#95,.T.);
#42=FACE_BOUND('',#96,.T.);
#43=FACE_BOUND('',#97,.T.);
#44=FACE_BOUND('',#98,.T.);
#45=FACE_BOUND('',#99,.T.);
#46=FACE_BOUND('',#101,.T.);
#47=FACE_BOUND('',#103,.T.);
#48=FACE_BOUND('',#105,.T.);
#49=FACE_BOUND('',#107,.T.);
#50=FACE_BOUND('',#109,.T.);
#51=FACE_BOUND('',#111,.T.);
#52=FACE_BOUND('',#113,.T.);
#53=FACE_BOUND('',#116,.T.);
#54=FACE_BOUND('',#118,.T.);
#55=FACE_BOUND('',#120,.T.);
#56=FACE_BOUND('',#122,.T.);
#57=FACE_OUTER_BOUND('',#77,.T.);
#58=FACE_OUTER_BOUND('',#79,.T.);
#59=FACE_OUTER_BOUND('',#80,.T.);
#60=FACE_OUTER_BOUND('',#82,.T.);
#61=FACE_OUTER_BOUND('',#88,.T.);
#62=FACE_OUTER_BOUND('',#90,.T.);
#63=FACE_OUTER_BOUND('',#92,.T.);
#64=FACE_OUTER_BOUND('',#94,.T.);
#65=FACE_OUTER_BOUND('',#100,.T.);
#66=FACE_OUTER_BOUND('',#102,.T.);
#67=FACE_OUTER_BOUND('',#104,.T.);
#68=FACE_OUTER_BOUND('',#106,.T.);
#69=FACE_OUTER_BOUND('',#108,.T.);
#70=FACE_OUTER_BOUND('',#110,.T.);
#71=FACE_OUTER_BOUND('',#112,.T.);
#72=FACE_OUTER_BOUND('',#114,.T.);
#73=FACE_OUTER_BOUND('',#115,.T.);
#74=FACE_OUTER_BOUND('',#117,.T.);
#75=FACE_OUTER_BOUND('',#119,.T.);
#76=FACE_OUTER_BOUND('',#121,.T.);
#77=EDGE_LOOP('',(#192));
#78=EDGE_LOOP('',(#193));
#79=EDGE_LOOP('',(#194));
#80=EDGE_LOOP('',(#195));
#81=EDGE_LOOP('',(#196));
#82=EDGE_LOOP('',(#197));
#83=EDGE_LOOP('',(#198));
#84=EDGE_LOOP('',(#199));
#85=EDGE_LOOP('',(#200));
#86=EDGE_LOOP('',(#201));
#87=EDGE_LOOP('',(#202));
#88=EDGE_LOOP('',(#203));
#89=EDGE_LOOP('',(#204));
#90=EDGE_LOOP('',(#205));
#91=EDGE_LOOP('',(#206));
#92=EDGE_LOOP('',(#207));
#93=EDGE_LOOP('',(#208));
#94=EDGE_LOOP('',(#209));
#95=EDGE_LOOP('',(#210));
#96=EDGE_LOOP('',(#211));
#97=EDGE_LOOP('',(#212));
#98=EDGE_LOOP('',(#213));
#99=EDGE_LOOP('',(#214));
#100=EDGE_LOOP('',(#215));
#101=EDGE_LOOP('',(#216));
#102=EDGE_LOOP('',(#217));
#103=EDGE_LOOP('',(#218));
#104=EDGE_LOOP('',(#219));
#105=EDGE_LOOP('',(#220));
#106=EDGE_LOOP('',(#221));
#107=EDGE_LOOP('',(#222));
#108=EDGE_LOOP('',(#223));
#109=EDGE_LOOP('',(#224));
#110=EDGE_LOOP('',(#225));
#111=EDGE_LOOP('',(#226));
#112=EDGE_LOOP('',(#227));
#113=EDGE_LOOP('',(#228));
#114=EDGE_LOOP('',(#229));
#115=EDGE_LOOP('',(#230));
#116=EDGE_LOOP('',(#231));
#117=EDGE_LOOP('',(#232));
#118=EDGE_LOOP('',(#233));
#119=EDGE_LOOP('',(#234));
#120=EDGE_LOOP('',(#235));
#121=EDGE_LOOP('',(#236));
#122=EDGE_LOOP('',(#237));
#123=CIRCLE('',#285,4.15792760779232);
#124=CIRCLE('',#286,4.14430275654667);
#125=CIRCLE('',#288,4.165);
#126=CIRCLE('',#290,7.);
#127=CIRCLE('',#291,6.8);
#128=CIRCLE('',#293,0.505);
#129=CIRCLE('',#294,0.549999999999998);
#130=CIRCLE('',#295,0.549999999999998);
#131=CIRCLE('',#296,0.549999999999998);
#132=CIRCLE('',#297,0.549999999999998);
#133=CIRCLE('',#299,7.);
#134=CIRCLE('',#301,4.37);
#135=CIRCLE('',#302,4.47);
#136=CIRCLE('',#304,4.37);
#137=CIRCLE('',#306,0.55);
#138=CIRCLE('',#307,0.55);
#139=CIRCLE('',#308,0.55);
#140=CIRCLE('',#309,0.55);
#141=CIRCLE('',#315,0.505);
#142=CIRCLE('',#317,0.275);
#143=CIRCLE('',#319,0.275);
#144=CIRCLE('',#322,4.165);
#145=CIRCLE('',#325,4.235);
#146=VERTEX_POINT('',#417);
#147=VERTEX_POINT('',#419);
#148=VERTEX_POINT('',#422);
#149=VERTEX_POINT('',#425);
#150=VERTEX_POINT('',#427);
#151=VERTEX_POINT('',#430);
#152=VERTEX_POINT('',#432);
#153=VERTEX_POINT('',#434);
#154=VERTEX_POINT('',#436);
#155=VERTEX_POINT('',#438);
#156=VERTEX_POINT('',#441);
#157=VERTEX_POINT('',#444);
#158=VERTEX_POINT('',#446);
#159=VERTEX_POINT('',#449);
#160=VERTEX_POINT('',#452);
#161=VERTEX_POINT('',#454);
#162=VERTEX_POINT('',#456);
#163=VERTEX_POINT('',#458);
#164=VERTEX_POINT('',#465);
#165=VERTEX_POINT('',#468);
#166=VERTEX_POINT('',#471);
#167=VERTEX_POINT('',#475);
#168=VERTEX_POINT('',#479);
#169=EDGE_CURVE('',#146,#146,#123,.T.);
#170=EDGE_CURVE('',#147,#147,#124,.T.);
#171=EDGE_CURVE('',#148,#148,#125,.T.);
#172=EDGE_CURVE('',#149,#149,#126,.T.);
#173=EDGE_CURVE('',#150,#150,#127,.T.);
#174=EDGE_CURVE('',#151,#151,#128,.T.);
#175=EDGE_CURVE('',#152,#152,#129,.T.);
#176=EDGE_CURVE('',#153,#153,#130,.T.);
#177=EDGE_CURVE('',#154,#154,#131,.T.);
#178=EDGE_CURVE('',#155,#155,#132,.T.);
#179=EDGE_CURVE('',#156,#156,#133,.T.);
#180=EDGE_CURVE('',#157,#157,#134,.T.);
#181=EDGE_CURVE('',#158,#158,#135,.T.);
#182=EDGE_CURVE('',#159,#159,#136,.T.);
#183=EDGE_CURVE('',#160,#160,#137,.T.);
#184=EDGE_CURVE('',#161,#161,#138,.T.);
#185=EDGE_CURVE('',#162,#162,#139,.T.);
#186=EDGE_CURVE('',#163,#163,#140,.T.);
#187=EDGE_CURVE('',#164,#164,#141,.T.);
#188=EDGE_CURVE('',#165,#165,#142,.T.);
#189=EDGE_CURVE('',#166,#166,#143,.T.);
#190=EDGE_CURVE('',#167,#167,#144,.T.);
#191=EDGE_CURVE('',#168,#168,#145,.T.);
#192=ORIENTED_EDGE('',*,*,#169,.F.);
#193=ORIENTED_EDGE('',*,*,#170,.F.);
#194=ORIENTED_EDGE('',*,*,#171,.F.);
#195=ORIENTED_EDGE('',*,*,#172,.T.);
#196=ORIENTED_EDGE('',*,*,#173,.T.);
#197=ORIENTED_EDGE('',*,*,#173,.F.);
#198=ORIENTED_EDGE('',*,*,#174,.F.);
#199=ORIENTED_EDGE('',*,*,#175,.T.);
#200=ORIENTED_EDGE('',*,*,#176,.T.);
#201=ORIENTED_EDGE('',*,*,#177,.T.);
#202=ORIENTED_EDGE('',*,*,#178,.T.);
#203=ORIENTED_EDGE('',*,*,#179,.T.);
#204=ORIENTED_EDGE('',*,*,#172,.F.);
#205=ORIENTED_EDGE('',*,*,#180,.T.);
#206=ORIENTED_EDGE('',*,*,#181,.T.);
#207=ORIENTED_EDGE('',*,*,#182,.T.);
#208=ORIENTED_EDGE('',*,*,#180,.F.);
#209=ORIENTED_EDGE('',*,*,#179,.F.);
#210=ORIENTED_EDGE('',*,*,#183,.T.);
#211=ORIENTED_EDGE('',*,*,#184,.T.);
#212=ORIENTED_EDGE('',*,*,#185,.T.);
#213=ORIENTED_EDGE('',*,*,#186,.T.);
#214=ORIENTED_EDGE('',*,*,#181,.F.);
#215=ORIENTED_EDGE('',*,*,#186,.F.);
#216=ORIENTED_EDGE('',*,*,#178,.F.);
#217=ORIENTED_EDGE('',*,*,#185,.F.);
#218=ORIENTED_EDGE('',*,*,#177,.F.);
#219=ORIENTED_EDGE('',*,*,#184,.F.);
#220=ORIENTED_EDGE('',*,*,#176,.F.);
#221=ORIENTED_EDGE('',*,*,#183,.F.);
#222=ORIENTED_EDGE('',*,*,#175,.F.);
#223=ORIENTED_EDGE('',*,*,#187,.F.);
#224=ORIENTED_EDGE('',*,*,#174,.T.);
#225=ORIENTED_EDGE('',*,*,#187,.T.);
#226=ORIENTED_EDGE('',*,*,#188,.F.);
#227=ORIENTED_EDGE('',*,*,#189,.F.);
#228=ORIENTED_EDGE('',*,*,#188,.T.);
#229=ORIENTED_EDGE('',*,*,#189,.T.);
#230=ORIENTED_EDGE('',*,*,#190,.F.);
#231=ORIENTED_EDGE('',*,*,#171,.T.);
#232=ORIENTED_EDGE('',*,*,#169,.T.);
#233=ORIENTED_EDGE('',*,*,#190,.T.);
#234=ORIENTED_EDGE('',*,*,#191,.F.);
#235=ORIENTED_EDGE('',*,*,#170,.T.);
#236=ORIENTED_EDGE('',*,*,#182,.F.);
#237=ORIENTED_EDGE('',*,*,#191,.T.);
#238=TOROIDAL_SURFACE('',#284,4.05,0.15);
#239=TOROIDAL_SURFACE('',#300,4.47,0.1);
#240=TOROIDAL_SURFACE('',#324,4.235,0.14);
#241=STYLED_ITEM('',(#505),#262);
#242=STYLED_ITEM('',(#506),#263);
#243=STYLED_ITEM('',(#506),#264);
#244=STYLED_ITEM('',(#506),#265);
#245=STYLED_ITEM('',(#506),#266);
#246=STYLED_ITEM('',(#506),#267);
#247=STYLED_ITEM('',(#506),#268);
#248=STYLED_ITEM('',(#506),#269);
#249=STYLED_ITEM('',(#506),#270);
#250=STYLED_ITEM('',(#506),#271);
#251=STYLED_ITEM('',(#506),#272);
#252=STYLED_ITEM('',(#506),#273);
#253=STYLED_ITEM('',(#506),#274);
#254=STYLED_ITEM('',(#506),#275);
#255=STYLED_ITEM('',(#506),#276);
#256=STYLED_ITEM('',(#506),#277);
#257=STYLED_ITEM('',(#506),#278);
#258=STYLED_ITEM('',(#506),#279);
#259=STYLED_ITEM('',(#506),#280);
#260=STYLED_ITEM('',(#506),#281);
#261=STYLED_ITEM('',(#504),#13);
#262=ADVANCED_FACE('',(#57,#31),#238,.T.);
#263=ADVANCED_FACE('',(#58),#25,.T.);
#264=ADVANCED_FACE('',(#59,#32),#23,.T.);
#265=ADVANCED_FACE('',(#60,#33,#34,#35,#36,#37),#26,.T.);
#266=ADVANCED_FACE('',(#61,#38),#14,.T.);
#267=ADVANCED_FACE('',(#62,#39),#239,.F.);
#268=ADVANCED_FACE('',(#63,#40),#15,.T.);
#269=ADVANCED_FACE('',(#64,#41,#42,#43,#44,#45),#27,.T.);
#270=ADVANCED_FACE('',(#65,#46),#16,.F.);
#271=ADVANCED_FACE('',(#66,#47),#17,.F.);
#272=ADVANCED_FACE('',(#67,#48),#18,.F.);
#273=ADVANCED_FACE('',(#68,#49),#19,.F.);
#274=ADVANCED_FACE('',(#69,#50),#20,.F.);
#275=ADVANCED_FACE('',(#70,#51),#28,.T.);
#276=ADVANCED_FACE('',(#71,#52),#21,.F.);
#277=ADVANCED_FACE('',(#72),#29,.T.);
#278=ADVANCED_FACE('',(#73,#53),#22,.T.);
#279=ADVANCED_FACE('',(#74,#54),#24,.T.);
#280=ADVANCED_FACE('',(#75,#55),#240,.F.);
#281=ADVANCED_FACE('',(#76,#56),#30,.T.);
#282=CLOSED_SHELL('',(#262,#263,#264,#265,#266,#267,#268,#269,#270,#271,
#272,#273,#274,#275,#276,#277,#278,#279,#280,#281));
#283=AXIS2_PLACEMENT_3D('placement',#415,#327,#328);
#284=AXIS2_PLACEMENT_3D('',#416,#329,#330);
#285=AXIS2_PLACEMENT_3D('',#418,#331,#332);
#286=AXIS2_PLACEMENT_3D('',#420,#333,#334);
#287=AXIS2_PLACEMENT_3D('',#421,#335,#336);
#288=AXIS2_PLACEMENT_3D('',#423,#337,#338);
#289=AXIS2_PLACEMENT_3D('',#424,#339,#340);
#290=AXIS2_PLACEMENT_3D('',#426,#341,#342);
#291=AXIS2_PLACEMENT_3D('',#428,#343,#344);
#292=AXIS2_PLACEMENT_3D('',#429,#345,#346);
#293=AXIS2_PLACEMENT_3D('',#431,#347,#348);
#294=AXIS2_PLACEMENT_3D('',#433,#349,#350);
#295=AXIS2_PLACEMENT_3D('',#435,#351,#352);
#296=AXIS2_PLACEMENT_3D('',#437,#353,#354);
#297=AXIS2_PLACEMENT_3D('',#439,#355,#356);
#298=AXIS2_PLACEMENT_3D('',#440,#357,#358);
#299=AXIS2_PLACEMENT_3D('',#442,#359,#360);
#300=AXIS2_PLACEMENT_3D('',#443,#361,#362);
#301=AXIS2_PLACEMENT_3D('',#445,#363,#364);
#302=AXIS2_PLACEMENT_3D('',#447,#365,#366);
#303=AXIS2_PLACEMENT_3D('',#448,#367,#368);
#304=AXIS2_PLACEMENT_3D('',#450,#369,#370);
#305=AXIS2_PLACEMENT_3D('',#451,#371,#372);
#306=AXIS2_PLACEMENT_3D('',#453,#373,#374);
#307=AXIS2_PLACEMENT_3D('',#455,#375,#376);
#308=AXIS2_PLACEMENT_3D('',#457,#377,#378);
#309=AXIS2_PLACEMENT_3D('',#459,#379,#380);
#310=AXIS2_PLACEMENT_3D('',#460,#381,#382);
#311=AXIS2_PLACEMENT_3D('',#461,#383,#384);
#312=AXIS2_PLACEMENT_3D('',#462,#385,#386);
#313=AXIS2_PLACEMENT_3D('',#463,#387,#388);
#314=AXIS2_PLACEMENT_3D('',#464,#389,#390);
#315=AXIS2_PLACEMENT_3D('',#466,#391,#392);
#316=AXIS2_PLACEMENT_3D('',#467,#393,#394);
#317=AXIS2_PLACEMENT_3D('',#469,#395,#396);
#318=AXIS2_PLACEMENT_3D('',#470,#397,#398);
#319=AXIS2_PLACEMENT_3D('',#472,#399,#400);
#320=AXIS2_PLACEMENT_3D('',#473,#401,#402);
#321=AXIS2_PLACEMENT_3D('',#474,#403,#404);
#322=AXIS2_PLACEMENT_3D('',#476,#405,#406);
#323=AXIS2_PLACEMENT_3D('',#477,#407,#408);
#324=AXIS2_PLACEMENT_3D('',#478,#409,#410);
#325=AXIS2_PLACEMENT_3D('',#480,#411,#412);
#326=AXIS2_PLACEMENT_3D('',#481,#413,#414);
#327=DIRECTION('axis',(0.,0.,1.));
#328=DIRECTION('refdir',(1.,0.,0.));
#329=DIRECTION('center_axis',(1.01785403317449E-16,-1.,-6.39098431852357E-17));
#330=DIRECTION('ref_axis',(-0.026867815992612,1.05735526154777E-16,-0.999638995069614));
#331=DIRECTION('center_axis',(0.,1.,0.));
#332=DIRECTION('ref_axis',(1.,-4.42974030472649E-18,0.));
#333=DIRECTION('center_axis',(1.01785403317449E-16,-1.,-6.39098431852357E-17));
#334=DIRECTION('ref_axis',(7.0637057363732E-33,1.07156555864203E-16,-1.));
#335=DIRECTION('center_axis',(0.,1.,0.));
#336=DIRECTION('ref_axis',(0.,0.,1.));
#337=DIRECTION('center_axis',(0.,-1.,0.));
#338=DIRECTION('ref_axis',(1.,-4.42974030472649E-18,0.));
#339=DIRECTION('center_axis',(0.,1.,0.));
#340=DIRECTION('ref_axis',(-1.,2.2469697197888E-18,0.));
#341=DIRECTION('center_axis',(0.,-1.,0.));
#342=DIRECTION('ref_axis',(-1.,4.42974030472649E-18,0.));
#343=DIRECTION('center_axis',(0.,1.,0.));
#344=DIRECTION('ref_axis',(-1.,0.,0.));
#345=DIRECTION('center_axis',(0.,-1.,0.));
#346=DIRECTION('ref_axis',(0.,0.,-1.));
#347=DIRECTION('center_axis',(0.,-1.,0.));
#348=DIRECTION('ref_axis',(1.,-4.42974030472649E-18,0.));
#349=DIRECTION('center_axis',(0.,1.,0.));
#350=DIRECTION('ref_axis',(1.,0.,0.));
#351=DIRECTION('center_axis',(0.,1.,0.));
#352=DIRECTION('ref_axis',(1.,0.,0.));
#353=DIRECTION('center_axis',(0.,1.,0.));
#354=DIRECTION('ref_axis',(1.,0.,0.));
#355=DIRECTION('center_axis',(0.,1.,0.));
#356=DIRECTION('ref_axis',(1.,0.,0.));
#357=DIRECTION('center_axis',(0.,-1.,0.));
#358=DIRECTION('ref_axis',(1.,-4.42974030472649E-18,0.));
#359=DIRECTION('center_axis',(0.,-1.,0.));
#360=DIRECTION('ref_axis',(1.,-4.42974030472649E-18,0.));
#361=DIRECTION('center_axis',(0.,-1.,0.));
#362=DIRECTION('ref_axis',(0.,0.,-1.));
#363=DIRECTION('center_axis',(0.,-1.,0.));
#364=DIRECTION('ref_axis',(-1.,0.,1.22460635382238E-16));
#365=DIRECTION('center_axis',(0.,1.,0.));
#366=DIRECTION('ref_axis',(-1.,0.,1.22460635382238E-16));
#367=DIRECTION('center_axis',(0.,-1.,0.));
#368=DIRECTION('ref_axis',(1.,-4.42974030472649E-18,0.));
#369=DIRECTION('center_axis',(0.,-1.,0.));
#370=DIRECTION('ref_axis',(1.,-4.42974030472649E-18,0.));
#371=DIRECTION('center_axis',(0.,1.,0.));
#372=DIRECTION('ref_axis',(0.,0.,1.));
#373=DIRECTION('center_axis',(0.,-1.,0.));
#374=DIRECTION('ref_axis',(1.,0.,0.));
#375=DIRECTION('center_axis',(0.,-1.,0.));
#376=DIRECTION('ref_axis',(1.,0.,0.));
#377=DIRECTION('center_axis',(0.,-1.,0.));
#378=DIRECTION('ref_axis',(1.,0.,0.));
#379=DIRECTION('center_axis',(0.,-1.,0.));
#380=DIRECTION('ref_axis',(1.,0.,0.));
#381=DIRECTION('center_axis',(0.,1.,0.));
#382=DIRECTION('ref_axis',(1.,0.,0.));
#383=DIRECTION('center_axis',(0.,1.,0.));
#384=DIRECTION('ref_axis',(1.,0.,0.));
#385=DIRECTION('center_axis',(0.,1.,0.));
#386=DIRECTION('ref_axis',(1.,0.,0.));
#387=DIRECTION('center_axis',(0.,1.,0.));
#388=DIRECTION('ref_axis',(1.,0.,0.));
#389=DIRECTION('center_axis',(0.,-1.,0.));
#390=DIRECTION('ref_axis',(1.,-4.42974030472649E-18,0.));
#391=DIRECTION('center_axis',(0.,-1.,0.));
#392=DIRECTION('ref_axis',(1.,-4.42974030472649E-18,0.));
#393=DIRECTION('center_axis',(0.,-1.,0.));
#394=DIRECTION('ref_axis',(0.,0.,-1.));
#395=DIRECTION('center_axis',(0.,-1.,0.));
#396=DIRECTION('ref_axis',(1.,-4.42974030472649E-18,0.));
#397=DIRECTION('center_axis',(0.,-1.,0.));
#398=DIRECTION('ref_axis',(1.,-4.42974030472649E-18,0.));
#399=DIRECTION('center_axis',(0.,-1.,0.));
#400=DIRECTION('ref_axis',(1.,-4.42974030472649E-18,0.));
#401=DIRECTION('center_axis',(0.,-1.,0.));
#402=DIRECTION('ref_axis',(0.,0.,-1.));
#403=DIRECTION('center_axis',(0.,-1.,0.));
#404=DIRECTION('ref_axis',(1.,-4.42974030472649E-18,0.));
#405=DIRECTION('center_axis',(0.,-1.,0.));
#406=DIRECTION('ref_axis',(1.,-4.42974030472649E-18,0.));
#407=DIRECTION('center_axis',(0.,1.,0.));
#408=DIRECTION('ref_axis',(1.,-4.42974030472649E-18,0.));
#409=DIRECTION('center_axis',(0.,-1.,0.));
#410=DIRECTION('ref_axis',(0.,0.,-1.));
#411=DIRECTION('center_axis',(0.,-1.,0.));
#412=DIRECTION('ref_axis',(1.,-4.42974030472649E-18,0.));
#413=DIRECTION('center_axis',(0.,1.,0.));
#414=DIRECTION('ref_axis',(0.,0.,1.));
#415=CARTESIAN_POINT('',(0.,0.,0.));
#416=CARTESIAN_POINT('Origin',(0.,3.55000000000001,0.));
#417=CARTESIAN_POINT('',(-4.15792760779232,3.65417116432214,5.09199273596927E-16));
#418=CARTESIAN_POINT('Origin',(0.,3.65417116432214,0.));
#419=CARTESIAN_POINT('',(-4.95657544643083E-16,3.43335099611357,4.14430275654667));
#420=CARTESIAN_POINT('Origin',(1.18731659071602E-17,3.43335099611357,-7.45501954609648E-18));
#421=CARTESIAN_POINT('Origin',(2.1575,3.7,0.));
#422=CARTESIAN_POINT('',(4.165,3.7,0.));
#423=CARTESIAN_POINT('Origin',(0.,3.7,0.));
#424=CARTESIAN_POINT('Origin',(0.,0.1,0.));
#425=CARTESIAN_POINT('',(7.,0.2,8.57224447675664E-16));
#426=CARTESIAN_POINT('Origin',(0.,0.2,0.));
#427=CARTESIAN_POINT('',(6.8,-2.77555756156289E-17,-8.32732320599216E-16));
#428=CARTESIAN_POINT('Origin',(0.,-2.77555756156289E-17,0.));
#429=CARTESIAN_POINT('Origin',(3.7525,-3.05928179763406E-17,0.));
#430=CARTESIAN_POINT('',(0.505,-6.11856359526811E-17,0.));
#431=CARTESIAN_POINT('Origin',(0.,-6.11490025281825E-17,0.));
#432=CARTESIAN_POINT('',(0.55,1.11022302462516E-15,-5.75));
#433=CARTESIAN_POINT('Origin',(0.,-2.77555756156289E-17,-5.75));
#434=CARTESIAN_POINT('',(-5.2,1.11022302462516E-15,0.));
#435=CARTESIAN_POINT('Origin',(-5.75,-2.77555756156289E-17,0.));
#436=CARTESIAN_POINT('',(0.55,1.11022302462516E-15,5.75));
#437=CARTESIAN_POINT('Origin',(0.,-2.77555756156289E-17,5.75));
#438=CARTESIAN_POINT('',(6.3,1.11022302462516E-15,0.));
#439=CARTESIAN_POINT('Origin',(5.75,-2.77555756156289E-17,0.));
#440=CARTESIAN_POINT('Origin',(0.,0.600000000000001,0.));
#441=CARTESIAN_POINT('',(7.,1.2,0.));
#442=CARTESIAN_POINT('Origin',(0.,1.2,0.));
#443=CARTESIAN_POINT('Origin',(0.,1.3,0.));
#444=CARTESIAN_POINT('',(4.37,1.3,0.));
#445=CARTESIAN_POINT('Origin',(0.,1.3,0.));
#446=CARTESIAN_POINT('',(4.47,1.2,-1.09479808031721E-15));
#447=CARTESIAN_POINT('Origin',(0.,1.2,0.));
#448=CARTESIAN_POINT('Origin',(0.,2.3,0.));
#449=CARTESIAN_POINT('',(4.37,3.4,0.));
#450=CARTESIAN_POINT('Origin',(0.,3.4,0.));
#451=CARTESIAN_POINT('Origin',(5.685,1.2,0.));
#452=CARTESIAN_POINT('',(0.55,1.2,-5.75));
#453=CARTESIAN_POINT('Origin',(0.,1.2,-5.75));
#454=CARTESIAN_POINT('',(-5.2,1.2,0.));
#455=CARTESIAN_POINT('Origin',(-5.75,1.2,0.));
#456=CARTESIAN_POINT('',(0.55,1.2,5.75));
#457=CARTESIAN_POINT('Origin',(0.,1.2,5.75));
#458=CARTESIAN_POINT('',(6.3,1.2,0.));
#459=CARTESIAN_POINT('Origin',(5.75,1.2,0.));
#460=CARTESIAN_POINT('Origin',(5.75,0.600000000000001,0.));
#461=CARTESIAN_POINT('Origin',(0.,0.600000000000001,5.75));
#462=CARTESIAN_POINT('Origin',(-5.75,0.600000000000001,0.));
#463=CARTESIAN_POINT('Origin',(0.,0.600000000000001,-5.75));
#464=CARTESIAN_POINT('Origin',(0.,0.04,0.));
#465=CARTESIAN_POINT('',(0.505,0.08,0.));
#466=CARTESIAN_POINT('Origin',(0.,0.08,0.));
#467=CARTESIAN_POINT('Origin',(0.39,0.0799999999999999,0.));
#468=CARTESIAN_POINT('',(0.275,0.0799999999999999,0.));
#469=CARTESIAN_POINT('Origin',(0.,0.0799999999999999,0.));
#470=CARTESIAN_POINT('Origin',(0.,0.13,0.));
#471=CARTESIAN_POINT('',(0.275,0.18,0.));
#472=CARTESIAN_POINT('Origin',(0.,0.18,0.));
#473=CARTESIAN_POINT('Origin',(0.2125,0.18,0.));
#474=CARTESIAN_POINT('Origin',(0.,3.68062177826491,0.));
#475=CARTESIAN_POINT('',(4.165,3.66124355652982,0.));
#476=CARTESIAN_POINT('Origin',(0.,3.66124355652982,0.));
#477=CARTESIAN_POINT('Origin',(0.,3.63562177826491,0.));
#478=CARTESIAN_POINT('Origin',(0.,3.54,0.));
#479=CARTESIAN_POINT('',(4.235,3.4,0.));
#480=CARTESIAN_POINT('Origin',(0.,3.4,0.));
#481=CARTESIAN_POINT('Origin',(4.3025,3.4,0.));
#482=UNCERTAINTY_MEASURE_WITH_UNIT(LENGTH_MEASURE(0.001),#486,
'DISTANCE_ACCURACY_VALUE',
'Maximum model space distance between geometric entities at asserted c
onnectivities');
#483=UNCERTAINTY_MEASURE_WITH_UNIT(LENGTH_MEASURE(1.E-6),#487,
'DISTANCE_ACCURACY_VALUE',
'Maximum model space distance between geometric entities at asserted c
onnectivities');
#484=(
GEOMETRIC_REPRESENTATION_CONTEXT(3)
GLOBAL_UNCERTAINTY_ASSIGNED_CONTEXT((#482))
GLOBAL_UNIT_ASSIGNED_CONTEXT((#486,#490,#488))
REPRESENTATION_CONTEXT('','3D')
);
#485=(
GEOMETRIC_REPRESENTATION_CONTEXT(3)
GLOBAL_UNCERTAINTY_ASSIGNED_CONTEXT((#483))
GLOBAL_UNIT_ASSIGNED_CONTEXT((#487,#490,#488))
REPRESENTATION_CONTEXT('','3D')
);
#486=(
LENGTH_UNIT()
NAMED_UNIT(*)
SI_UNIT(.CENTI.,.METRE.)
);
#487=(
LENGTH_UNIT()
NAMED_UNIT(*)
SI_UNIT(.MILLI.,.METRE.)
);
#488=(
NAMED_UNIT(*)
SI_UNIT($,.STERADIAN.)
SOLID_ANGLE_UNIT()
);
#489=DIMENSIONAL_EXPONENTS(0.,0.,0.,0.,0.,0.,0.);
#490=(
CONVERSION_BASED_UNIT('degree',#492)
NAMED_UNIT(#489)
PLANE_ANGLE_UNIT()
);
#491=(
NAMED_UNIT(*)
PLANE_ANGLE_UNIT()
SI_UNIT($,.RADIAN.)
);
#492=PLANE_ANGLE_MEASURE_WITH_UNIT(PLANE_ANGLE_MEASURE(0.01745329252),#491);
#493=SHAPE_DEFINITION_REPRESENTATION(#494,#495);
#494=PRODUCT_DEFINITION_SHAPE('',$,#497);
#495=SHAPE_REPRESENTATION('',(#283),#484);
#496=PRODUCT_DEFINITION_CONTEXT('part definition',#501,'design');
#497=PRODUCT_DEFINITION('31413W','31413W',#498,#496);
#498=PRODUCT_DEFINITION_FORMATION('',$,#503);
#499=PRODUCT_RELATED_PRODUCT_CATEGORY('31413W','31413W',(#503));
#500=APPLICATION_PROTOCOL_DEFINITION('international standard',
'automotive_design',2009,#501);
#501=APPLICATION_CONTEXT(
'Core Data for Automotive Mechanical Design Process');
#502=PRODUCT_CONTEXT('part definition',#501,'mechanical');
#503=PRODUCT('31413W','31413W',$,(#502));
#504=PRESENTATION_STYLE_ASSIGNMENT((#507));
#505=PRESENTATION_STYLE_ASSIGNMENT((#508));
#506=PRESENTATION_STYLE_ASSIGNMENT((#509));
#507=SURFACE_STYLE_USAGE(.BOTH.,#510);
#508=SURFACE_STYLE_USAGE(.BOTH.,#511);
#509=SURFACE_STYLE_USAGE(.BOTH.,#512);
#510=SURFACE_SIDE_STYLE($,(#513));
#511=SURFACE_SIDE_STYLE($,(#514));
#512=SURFACE_SIDE_STYLE($,(#515));
#513=SURFACE_STYLE_FILL_AREA(#516);
#514=SURFACE_STYLE_FILL_AREA(#517);
#515=SURFACE_STYLE_FILL_AREA(#518);
#516=FILL_AREA_STYLE($,(#519));
#517=FILL_AREA_STYLE($,(#520));
#518=FILL_AREA_STYLE($,(#521));
#519=FILL_AREA_STYLE_COLOUR($,#522);
#520=FILL_AREA_STYLE_COLOUR($,#523);
#521=FILL_AREA_STYLE_COLOUR($,#524);
#522=COLOUR_RGB('',0.749019607843137,0.749019607843137,0.749019607843137);
#523=COLOUR_RGB('',0.250980392156863,0.250980392156863,0.250980392156863);
#524=COLOUR_RGB('',0.63921568627451,0.63921568627451,0.686274509803922);
ENDSEC;
END-ISO-10303-21;
