ISO-10303-21;
HEADER;
/* Generated by software containing ST-Developer
 * from STEP Tools, Inc. (www.steptools.com) 
 */

FILE_DESCRIPTION(
/* description */ (''),
/* implementation_level */ '2;1');

FILE_NAME(
/* name */ 
'J:\\AM_Zeichnung\\Inventor\\PROJEKT_STAMMORDNER\\Druckmittler\\Druckm
ittler_Baugruppen\\KD21\\step\\solid\\31428W.stp',
/* time_stamp */ '2018-02-06T13:51:00+01:00',
/* author */ ('acgl'),
/* organization */ (''),
/* preprocessor_version */ 'ST-DEVELOPER v15.6',
/* originating_system */ 'Autodesk Inventor 2015',
/* authorisation */ '');

FILE_SCHEMA (('AUTOMOTIVE_DESIGN { 1 0 10303 214 3 1 1 }'));
ENDSEC;

DATA;
#10=MECHANICAL_DESIGN_GEOMETRIC_PRESENTATION_REPRESENTATION('',(#229,#228,
#231,#230,#235,#233,#236,#232,#234,#237,#238,#245,#246,#242,#244,#239,#240,
#241,#243),#455);
#11=SHAPE_REPRESENTATION_RELATIONSHIP('SRR','None',#465,#12);
#12=ADVANCED_BREP_SHAPE_REPRESENTATION($,(#13),#454);
#13=MANIFOLD_SOLID_BREP('Volumenk\X\F6rper1',#265);
#14=LINE('',#427,#20);
#15=LINE('',#428,#21);
#16=LINE('',#430,#22);
#17=LINE('',#444,#23);
#18=LINE('',#446,#24);
#19=LINE('',#448,#25);
#20=VECTOR('',#323,1.5);
#21=VECTOR('',#324,1.5);
#22=VECTOR('',#327,1.5);
#23=VECTOR('',#346,1.5);
#24=VECTOR('',#349,1.5);
#25=VECTOR('',#352,1.5);
#26=CYLINDRICAL_SURFACE('',#276,2.415);
#27=CYLINDRICAL_SURFACE('',#283,0.275);
#28=CYLINDRICAL_SURFACE('',#287,0.505);
#29=PLANE('',#274);
#30=PLANE('',#279);
#31=PLANE('',#280);
#32=PLANE('',#281);
#33=PLANE('',#285);
#34=PLANE('',#289);
#35=PLANE('',#290);
#36=PLANE('',#291);
#37=PLANE('',#292);
#38=PLANE('',#293);
#39=PLANE('',#294);
#40=(
BOUNDED_CURVE()
B_SPLINE_CURVE(2,(#371,#372,#373),.UNSPECIFIED.,.F.,.F.)
B_SPLINE_CURVE_WITH_KNOTS((3,3),(0.,3.21319937971428),.UNSPECIFIED.)
CURVE()
GEOMETRIC_REPRESENTATION_ITEM()
RATIONAL_B_SPLINE_CURVE((1.,1.15470053837925,1.))
REPRESENTATION_ITEM('')
);
#41=(
BOUNDED_CURVE()
B_SPLINE_CURVE(2,(#375,#376,#377),.UNSPECIFIED.,.F.,.F.)
B_SPLINE_CURVE_WITH_KNOTS((3,3),(0.,3.21319937971428),.UNSPECIFIED.)
CURVE()
GEOMETRIC_REPRESENTATION_ITEM()
RATIONAL_B_SPLINE_CURVE((1.,1.15470053837925,1.))
REPRESENTATION_ITEM('')
);
#42=(
BOUNDED_CURVE()
B_SPLINE_CURVE(2,(#379,#380,#381),.UNSPECIFIED.,.F.,.F.)
B_SPLINE_CURVE_WITH_KNOTS((3,3),(0.,3.21319937971428),.UNSPECIFIED.)
CURVE()
GEOMETRIC_REPRESENTATION_ITEM()
RATIONAL_B_SPLINE_CURVE((1.,1.15470053837925,1.))
REPRESENTATION_ITEM('')
);
#43=(
BOUNDED_CURVE()
B_SPLINE_CURVE(2,(#383,#384,#385),.UNSPECIFIED.,.F.,.F.)
B_SPLINE_CURVE_WITH_KNOTS((3,3),(0.,3.21319937971428),.UNSPECIFIED.)
CURVE()
GEOMETRIC_REPRESENTATION_ITEM()
RATIONAL_B_SPLINE_CURVE((1.,1.15470053837925,1.))
REPRESENTATION_ITEM('')
);
#44=(
BOUNDED_CURVE()
B_SPLINE_CURVE(2,(#387,#388,#389),.UNSPECIFIED.,.F.,.F.)
B_SPLINE_CURVE_WITH_KNOTS((3,3),(0.,3.21319937971428),.UNSPECIFIED.)
CURVE()
GEOMETRIC_REPRESENTATION_ITEM()
RATIONAL_B_SPLINE_CURVE((1.,1.15470053837925,1.))
REPRESENTATION_ITEM('')
);
#45=(
BOUNDED_CURVE()
B_SPLINE_CURVE(2,(#390,#391,#392),.UNSPECIFIED.,.F.,.F.)
B_SPLINE_CURVE_WITH_KNOTS((3,3),(0.,3.21319937971428),.UNSPECIFIED.)
CURVE()
GEOMETRIC_REPRESENTATION_ITEM()
RATIONAL_B_SPLINE_CURVE((1.,1.15470053837926,1.))
REPRESENTATION_ITEM('')
);
#46=(
BOUNDED_CURVE()
B_SPLINE_CURVE(2,(#402,#403,#404),.UNSPECIFIED.,.F.,.F.)
B_SPLINE_CURVE_WITH_KNOTS((3,3),(0.,3.21319937971428),.UNSPECIFIED.)
CURVE()
GEOMETRIC_REPRESENTATION_ITEM()
RATIONAL_B_SPLINE_CURVE((1.,1.15470053837925,1.))
REPRESENTATION_ITEM('')
);
#47=(
BOUNDED_CURVE()
B_SPLINE_CURVE(2,(#406,#407,#408),.UNSPECIFIED.,.F.,.F.)
B_SPLINE_CURVE_WITH_KNOTS((3,3),(0.,3.21319937971428),.UNSPECIFIED.)
CURVE()
GEOMETRIC_REPRESENTATION_ITEM()
RATIONAL_B_SPLINE_CURVE((1.,1.15470053837925,1.))
REPRESENTATION_ITEM('')
);
#48=(
BOUNDED_CURVE()
B_SPLINE_CURVE(2,(#410,#411,#412),.UNSPECIFIED.,.F.,.F.)
B_SPLINE_CURVE_WITH_KNOTS((3,3),(0.,3.21319937971428),.UNSPECIFIED.)
CURVE()
GEOMETRIC_REPRESENTATION_ITEM()
RATIONAL_B_SPLINE_CURVE((1.,1.15470053837925,1.))
REPRESENTATION_ITEM('')
);
#49=(
BOUNDED_CURVE()
B_SPLINE_CURVE(2,(#414,#415,#416),.UNSPECIFIED.,.F.,.F.)
B_SPLINE_CURVE_WITH_KNOTS((3,3),(0.,3.21319937971428),.UNSPECIFIED.)
CURVE()
GEOMETRIC_REPRESENTATION_ITEM()
RATIONAL_B_SPLINE_CURVE((1.,1.15470053837925,1.))
REPRESENTATION_ITEM('')
);
#50=(
BOUNDED_CURVE()
B_SPLINE_CURVE(2,(#418,#419,#420),.UNSPECIFIED.,.F.,.F.)
B_SPLINE_CURVE_WITH_KNOTS((3,3),(0.,3.21319937971427),.UNSPECIFIED.)
CURVE()
GEOMETRIC_REPRESENTATION_ITEM()
RATIONAL_B_SPLINE_CURVE((1.,1.15470053837925,1.))
REPRESENTATION_ITEM('')
);
#51=(
BOUNDED_CURVE()
B_SPLINE_CURVE(2,(#421,#422,#423),.UNSPECIFIED.,.F.,.F.)
B_SPLINE_CURVE_WITH_KNOTS((3,3),(0.,3.21319937971428),.UNSPECIFIED.)
CURVE()
GEOMETRIC_REPRESENTATION_ITEM()
RATIONAL_B_SPLINE_CURVE((1.,1.15470053837925,1.))
REPRESENTATION_ITEM('')
);
#52=FACE_BOUND('',#81,.T.);
#53=FACE_BOUND('',#83,.T.);
#54=FACE_BOUND('',#85,.T.);
#55=FACE_BOUND('',#87,.T.);
#56=FACE_BOUND('',#89,.T.);
#57=FACE_BOUND('',#91,.T.);
#58=FACE_BOUND('',#96,.T.);
#59=FACE_BOUND('',#98,.T.);
#60=FACE_BOUND('',#100,.T.);
#61=FACE_BOUND('',#106,.T.);
#62=FACE_OUTER_BOUND('',#80,.T.);
#63=FACE_OUTER_BOUND('',#82,.T.);
#64=FACE_OUTER_BOUND('',#84,.T.);
#65=FACE_OUTER_BOUND('',#86,.T.);
#66=FACE_OUTER_BOUND('',#88,.T.);
#67=FACE_OUTER_BOUND('',#90,.T.);
#68=FACE_OUTER_BOUND('',#92,.T.);
#69=FACE_OUTER_BOUND('',#93,.T.);
#70=FACE_OUTER_BOUND('',#94,.T.);
#71=FACE_OUTER_BOUND('',#95,.T.);
#72=FACE_OUTER_BOUND('',#97,.T.);
#73=FACE_OUTER_BOUND('',#99,.T.);
#74=FACE_OUTER_BOUND('',#101,.T.);
#75=FACE_OUTER_BOUND('',#102,.T.);
#76=FACE_OUTER_BOUND('',#103,.T.);
#77=FACE_OUTER_BOUND('',#104,.T.);
#78=FACE_OUTER_BOUND('',#105,.T.);
#79=FACE_OUTER_BOUND('',#107,.T.);
#80=EDGE_LOOP('',(#168));
#81=EDGE_LOOP('',(#169));
#82=EDGE_LOOP('',(#170));
#83=EDGE_LOOP('',(#171));
#84=EDGE_LOOP('',(#172,#173,#174,#175,#176,#177));
#85=EDGE_LOOP('',(#178));
#86=EDGE_LOOP('',(#179));
#87=EDGE_LOOP('',(#180));
#88=EDGE_LOOP('',(#181));
#89=EDGE_LOOP('',(#182));
#90=EDGE_LOOP('',(#183,#184,#185,#186,#187,#188));
#91=EDGE_LOOP('',(#189));
#92=EDGE_LOOP('',(#190,#191,#192,#193));
#93=EDGE_LOOP('',(#194,#195,#196,#197));
#94=EDGE_LOOP('',(#198));
#95=EDGE_LOOP('',(#199));
#96=EDGE_LOOP('',(#200));
#97=EDGE_LOOP('',(#201));
#98=EDGE_LOOP('',(#202));
#99=EDGE_LOOP('',(#203));
#100=EDGE_LOOP('',(#204));
#101=EDGE_LOOP('',(#205,#206,#207,#208));
#102=EDGE_LOOP('',(#209,#210,#211,#212));
#103=EDGE_LOOP('',(#213,#214,#215,#216));
#104=EDGE_LOOP('',(#217,#218,#219,#220));
#105=EDGE_LOOP('',(#221));
#106=EDGE_LOOP('',(#222));
#107=EDGE_LOOP('',(#223));
#108=CIRCLE('',#268,2.36099730182113);
#109=CIRCLE('',#269,2.155);
#110=CIRCLE('',#271,2.415);
#111=CIRCLE('',#273,2.74241377865072);
#112=CIRCLE('',#275,2.415);
#113=CIRCLE('',#278,2.74241377865072);
#114=CIRCLE('',#282,0.275);
#115=CIRCLE('',#284,0.275);
#116=CIRCLE('',#286,0.505);
#117=CIRCLE('',#288,0.505);
#118=VERTEX_POINT('',#361);
#119=VERTEX_POINT('',#363);
#120=VERTEX_POINT('',#366);
#121=VERTEX_POINT('',#369);
#122=VERTEX_POINT('',#370);
#123=VERTEX_POINT('',#374);
#124=VERTEX_POINT('',#378);
#125=VERTEX_POINT('',#382);
#126=VERTEX_POINT('',#386);
#127=VERTEX_POINT('',#393);
#128=VERTEX_POINT('',#396);
#129=VERTEX_POINT('',#400);
#130=VERTEX_POINT('',#401);
#131=VERTEX_POINT('',#405);
#132=VERTEX_POINT('',#409);
#133=VERTEX_POINT('',#413);
#134=VERTEX_POINT('',#417);
#135=VERTEX_POINT('',#424);
#136=VERTEX_POINT('',#432);
#137=VERTEX_POINT('',#435);
#138=VERTEX_POINT('',#438);
#139=VERTEX_POINT('',#441);
#140=EDGE_CURVE('',#118,#118,#108,.T.);
#141=EDGE_CURVE('',#119,#119,#109,.T.);
#142=EDGE_CURVE('',#120,#120,#110,.T.);
#143=EDGE_CURVE('',#121,#122,#40,.T.);
#144=EDGE_CURVE('',#123,#121,#41,.T.);
#145=EDGE_CURVE('',#124,#123,#42,.T.);
#146=EDGE_CURVE('',#125,#124,#43,.T.);
#147=EDGE_CURVE('',#126,#125,#44,.T.);
#148=EDGE_CURVE('',#122,#126,#45,.T.);
#149=EDGE_CURVE('',#127,#127,#111,.T.);
#150=EDGE_CURVE('',#128,#128,#112,.T.);
#151=EDGE_CURVE('',#129,#130,#46,.T.);
#152=EDGE_CURVE('',#131,#129,#47,.T.);
#153=EDGE_CURVE('',#132,#131,#48,.T.);
#154=EDGE_CURVE('',#133,#132,#49,.T.);
#155=EDGE_CURVE('',#134,#133,#50,.T.);
#156=EDGE_CURVE('',#130,#134,#51,.T.);
#157=EDGE_CURVE('',#135,#135,#113,.T.);
#158=EDGE_CURVE('',#123,#134,#14,.T.);
#159=EDGE_CURVE('',#124,#133,#15,.T.);
#160=EDGE_CURVE('',#121,#130,#16,.T.);
#161=EDGE_CURVE('',#136,#136,#114,.T.);
#162=EDGE_CURVE('',#137,#137,#115,.T.);
#163=EDGE_CURVE('',#138,#138,#116,.T.);
#164=EDGE_CURVE('',#139,#139,#117,.T.);
#165=EDGE_CURVE('',#122,#129,#17,.T.);
#166=EDGE_CURVE('',#125,#132,#18,.T.);
#167=EDGE_CURVE('',#126,#131,#19,.T.);
#168=ORIENTED_EDGE('',*,*,#140,.T.);
#169=ORIENTED_EDGE('',*,*,#141,.T.);
#170=ORIENTED_EDGE('',*,*,#142,.F.);
#171=ORIENTED_EDGE('',*,*,#140,.F.);
#172=ORIENTED_EDGE('',*,*,#143,.F.);
#173=ORIENTED_EDGE('',*,*,#144,.F.);
#174=ORIENTED_EDGE('',*,*,#145,.F.);
#175=ORIENTED_EDGE('',*,*,#146,.F.);
#176=ORIENTED_EDGE('',*,*,#147,.F.);
#177=ORIENTED_EDGE('',*,*,#148,.F.);
#178=ORIENTED_EDGE('',*,*,#149,.T.);
#179=ORIENTED_EDGE('',*,*,#149,.F.);
#180=ORIENTED_EDGE('',*,*,#150,.T.);
#181=ORIENTED_EDGE('',*,*,#142,.T.);
#182=ORIENTED_EDGE('',*,*,#150,.F.);
#183=ORIENTED_EDGE('',*,*,#151,.F.);
#184=ORIENTED_EDGE('',*,*,#152,.F.);
#185=ORIENTED_EDGE('',*,*,#153,.F.);
#186=ORIENTED_EDGE('',*,*,#154,.F.);
#187=ORIENTED_EDGE('',*,*,#155,.F.);
#188=ORIENTED_EDGE('',*,*,#156,.F.);
#189=ORIENTED_EDGE('',*,*,#157,.F.);
#190=ORIENTED_EDGE('',*,*,#145,.T.);
#191=ORIENTED_EDGE('',*,*,#158,.T.);
#192=ORIENTED_EDGE('',*,*,#155,.T.);
#193=ORIENTED_EDGE('',*,*,#159,.F.);
#194=ORIENTED_EDGE('',*,*,#144,.T.);
#195=ORIENTED_EDGE('',*,*,#160,.T.);
#196=ORIENTED_EDGE('',*,*,#156,.T.);
#197=ORIENTED_EDGE('',*,*,#158,.F.);
#198=ORIENTED_EDGE('',*,*,#161,.T.);
#199=ORIENTED_EDGE('',*,*,#162,.T.);
#200=ORIENTED_EDGE('',*,*,#161,.F.);
#201=ORIENTED_EDGE('',*,*,#163,.T.);
#202=ORIENTED_EDGE('',*,*,#162,.F.);
#203=ORIENTED_EDGE('',*,*,#164,.F.);
#204=ORIENTED_EDGE('',*,*,#163,.F.);
#205=ORIENTED_EDGE('',*,*,#143,.T.);
#206=ORIENTED_EDGE('',*,*,#165,.T.);
#207=ORIENTED_EDGE('',*,*,#151,.T.);
#208=ORIENTED_EDGE('',*,*,#160,.F.);
#209=ORIENTED_EDGE('',*,*,#146,.T.);
#210=ORIENTED_EDGE('',*,*,#159,.T.);
#211=ORIENTED_EDGE('',*,*,#154,.T.);
#212=ORIENTED_EDGE('',*,*,#166,.F.);
#213=ORIENTED_EDGE('',*,*,#147,.T.);
#214=ORIENTED_EDGE('',*,*,#166,.T.);
#215=ORIENTED_EDGE('',*,*,#153,.T.);
#216=ORIENTED_EDGE('',*,*,#167,.F.);
#217=ORIENTED_EDGE('',*,*,#148,.T.);
#218=ORIENTED_EDGE('',*,*,#167,.T.);
#219=ORIENTED_EDGE('',*,*,#152,.T.);
#220=ORIENTED_EDGE('',*,*,#165,.F.);
#221=ORIENTED_EDGE('',*,*,#157,.T.);
#222=ORIENTED_EDGE('',*,*,#164,.T.);
#223=ORIENTED_EDGE('',*,*,#141,.F.);
#224=CONICAL_SURFACE('',#267,2.25799865091057,45.8591790008278);
#225=CONICAL_SURFACE('',#270,2.385,1.71835800165546);
#226=CONICAL_SURFACE('',#272,2.95892012959683,60.);
#227=CONICAL_SURFACE('',#277,2.95892012959683,60.);
#228=STYLED_ITEM('',(#475),#247);
#229=STYLED_ITEM('',(#475),#248);
#230=STYLED_ITEM('',(#475),#249);
#231=STYLED_ITEM('',(#475),#250);
#232=STYLED_ITEM('',(#475),#251);
#233=STYLED_ITEM('',(#475),#252);
#234=STYLED_ITEM('',(#475),#253);
#235=STYLED_ITEM('',(#475),#254);
#236=STYLED_ITEM('',(#475),#255);
#237=STYLED_ITEM('',(#475),#256);
#238=STYLED_ITEM('',(#475),#257);
#239=STYLED_ITEM('',(#475),#258);
#240=STYLED_ITEM('',(#475),#259);
#241=STYLED_ITEM('',(#475),#260);
#242=STYLED_ITEM('',(#475),#261);
#243=STYLED_ITEM('',(#475),#262);
#244=STYLED_ITEM('',(#475),#263);
#245=STYLED_ITEM('',(#475),#264);
#246=STYLED_ITEM('',(#474),#13);
#247=ADVANCED_FACE('',(#62,#52),#224,.T.);
#248=ADVANCED_FACE('',(#63,#53),#225,.T.);
#249=ADVANCED_FACE('',(#64,#54),#226,.T.);
#250=ADVANCED_FACE('',(#65,#55),#29,.F.);
#251=ADVANCED_FACE('',(#66,#56),#26,.T.);
#252=ADVANCED_FACE('',(#67,#57),#227,.T.);
#253=ADVANCED_FACE('',(#68),#30,.T.);
#254=ADVANCED_FACE('',(#69),#31,.T.);
#255=ADVANCED_FACE('',(#70),#32,.F.);
#256=ADVANCED_FACE('',(#71,#58),#27,.F.);
#257=ADVANCED_FACE('',(#72,#59),#33,.F.);
#258=ADVANCED_FACE('',(#73,#60),#28,.F.);
#259=ADVANCED_FACE('',(#74),#34,.T.);
#260=ADVANCED_FACE('',(#75),#35,.T.);
#261=ADVANCED_FACE('',(#76),#36,.T.);
#262=ADVANCED_FACE('',(#77),#37,.T.);
#263=ADVANCED_FACE('',(#78,#61),#38,.T.);
#264=ADVANCED_FACE('',(#79),#39,.F.);
#265=CLOSED_SHELL('',(#247,#248,#249,#250,#251,#252,#253,#254,#255,#256,
#257,#258,#259,#260,#261,#262,#263,#264));
#266=AXIS2_PLACEMENT_3D('placement',#359,#295,#296);
#267=AXIS2_PLACEMENT_3D('',#360,#297,#298);
#268=AXIS2_PLACEMENT_3D('',#362,#299,#300);
#269=AXIS2_PLACEMENT_3D('',#364,#301,#302);
#270=AXIS2_PLACEMENT_3D('',#365,#303,#304);
#271=AXIS2_PLACEMENT_3D('',#367,#305,#306);
#272=AXIS2_PLACEMENT_3D('',#368,#307,#308);
#273=AXIS2_PLACEMENT_3D('',#394,#309,#310);
#274=AXIS2_PLACEMENT_3D('',#395,#311,#312);
#275=AXIS2_PLACEMENT_3D('',#397,#313,#314);
#276=AXIS2_PLACEMENT_3D('',#398,#315,#316);
#277=AXIS2_PLACEMENT_3D('',#399,#317,#318);
#278=AXIS2_PLACEMENT_3D('',#425,#319,#320);
#279=AXIS2_PLACEMENT_3D('',#426,#321,#322);
#280=AXIS2_PLACEMENT_3D('',#429,#325,#326);
#281=AXIS2_PLACEMENT_3D('',#431,#328,#329);
#282=AXIS2_PLACEMENT_3D('',#433,#330,#331);
#283=AXIS2_PLACEMENT_3D('',#434,#332,#333);
#284=AXIS2_PLACEMENT_3D('',#436,#334,#335);
#285=AXIS2_PLACEMENT_3D('',#437,#336,#337);
#286=AXIS2_PLACEMENT_3D('',#439,#338,#339);
#287=AXIS2_PLACEMENT_3D('',#440,#340,#341);
#288=AXIS2_PLACEMENT_3D('',#442,#342,#343);
#289=AXIS2_PLACEMENT_3D('',#443,#344,#345);
#290=AXIS2_PLACEMENT_3D('',#445,#347,#348);
#291=AXIS2_PLACEMENT_3D('',#447,#350,#351);
#292=AXIS2_PLACEMENT_3D('',#449,#353,#354);
#293=AXIS2_PLACEMENT_3D('',#450,#355,#356);
#294=AXIS2_PLACEMENT_3D('',#451,#357,#358);
#295=DIRECTION('axis',(0.,0.,1.));
#296=DIRECTION('refdir',(1.,0.,0.));
#297=DIRECTION('center_axis',(7.23172155088563E-16,1.,0.));
#298=DIRECTION('ref_axis',(3.20127271478307E-17,0.,1.));
#299=DIRECTION('center_axis',(0.,-1.,0.));
#300=DIRECTION('ref_axis',(6.12323399573676E-17,0.,1.));
#301=DIRECTION('center_axis',(0.,1.,0.));
#302=DIRECTION('ref_axis',(0.,0.,1.));
#303=DIRECTION('center_axis',(0.,1.,0.));
#304=DIRECTION('ref_axis',(0.,0.,-1.));
#305=DIRECTION('center_axis',(0.,1.,0.));
#306=DIRECTION('ref_axis',(0.,0.,-1.));
#307=DIRECTION('center_axis',(0.,1.,0.));
#308=DIRECTION('ref_axis',(0.,0.,-1.));
#309=DIRECTION('center_axis',(0.,1.,0.));
#310=DIRECTION('ref_axis',(0.,0.,-1.));
#311=DIRECTION('center_axis',(0.,1.,0.));
#312=DIRECTION('ref_axis',(0.,0.,1.));
#313=DIRECTION('center_axis',(0.,1.,0.));
#314=DIRECTION('ref_axis',(0.,0.,-1.));
#315=DIRECTION('center_axis',(0.,1.,0.));
#316=DIRECTION('ref_axis',(0.,0.,-1.));
#317=DIRECTION('center_axis',(0.,-1.,0.));
#318=DIRECTION('ref_axis',(0.,0.,-1.));
#319=DIRECTION('center_axis',(0.,1.,0.));
#320=DIRECTION('ref_axis',(0.,0.,-1.));
#321=DIRECTION('center_axis',(0.5,0.,-0.866025403784439));
#322=DIRECTION('ref_axis',(-0.866025403784439,0.,-0.5));
#323=DIRECTION('',(0.,1.,0.));
#324=DIRECTION('',(0.,1.,0.));
#325=DIRECTION('center_axis',(-0.5,0.,-0.866025403784439));
#326=DIRECTION('ref_axis',(-0.866025403784439,0.,0.5));
#327=DIRECTION('',(0.,1.,0.));
#328=DIRECTION('center_axis',(0.,-1.,0.));
#329=DIRECTION('ref_axis',(0.,0.,-1.));
#330=DIRECTION('center_axis',(0.,1.,0.));
#331=DIRECTION('ref_axis',(0.,0.,-1.));
#332=DIRECTION('center_axis',(0.,1.,0.));
#333=DIRECTION('ref_axis',(0.,0.,-1.));
#334=DIRECTION('center_axis',(0.,1.,0.));
#335=DIRECTION('ref_axis',(0.,0.,-1.));
#336=DIRECTION('center_axis',(0.,-1.,0.));
#337=DIRECTION('ref_axis',(0.,0.,-1.));
#338=DIRECTION('center_axis',(0.,1.,0.));
#339=DIRECTION('ref_axis',(0.,0.,-1.));
#340=DIRECTION('center_axis',(0.,1.,0.));
#341=DIRECTION('ref_axis',(0.,0.,-1.));
#342=DIRECTION('center_axis',(0.,-1.,0.));
#343=DIRECTION('ref_axis',(0.,0.,-1.));
#344=DIRECTION('center_axis',(-1.,0.,0.));
#345=DIRECTION('ref_axis',(0.,0.,1.));
#346=DIRECTION('',(0.,1.,0.));
#347=DIRECTION('center_axis',(1.,0.,-2.79703663473973E-16));
#348=DIRECTION('ref_axis',(-4.44089209850063E-16,0.,-1.));
#349=DIRECTION('',(0.,1.,0.));
#350=DIRECTION('center_axis',(0.500000000000001,0.,0.866025403784438));
#351=DIRECTION('ref_axis',(0.866025403784438,0.,-0.5));
#352=DIRECTION('',(0.,1.,0.));
#353=DIRECTION('center_axis',(-0.5,0.,0.866025403784439));
#354=DIRECTION('ref_axis',(0.866025403784439,0.,0.5));
#355=DIRECTION('center_axis',(0.,1.,0.));
#356=DIRECTION('ref_axis',(0.,0.,1.));
#357=DIRECTION('center_axis',(-2.09713275455509E-15,1.,-1.97215226305253E-31));
#358=DIRECTION('ref_axis',(-0.961224739422345,-2.01581588553128E-15,0.275766205910814));
#359=CARTESIAN_POINT('',(0.,0.,0.));
#360=CARTESIAN_POINT('Origin',(7.22846947117697E-17,0.0999550303522367,
0.));
#361=CARTESIAN_POINT('',(2.89138778847079E-16,0.199910060704473,-2.36099730182113));
#362=CARTESIAN_POINT('Origin',(1.44569389423539E-16,0.199910060704473,0.));
#363=CARTESIAN_POINT('',(-2.63911385216255E-16,0.,-2.155));
#364=CARTESIAN_POINT('Origin',(0.,0.,0.));
#365=CARTESIAN_POINT('Origin',(0.,1.,0.));
#366=CARTESIAN_POINT('',(0.,2.,-2.415));
#367=CARTESIAN_POINT('Origin',(0.,2.,0.));
#368=CARTESIAN_POINT('Origin',(0.,2.625,0.));
#369=CARTESIAN_POINT('',(-2.75,2.75,-1.58771324027147));
#370=CARTESIAN_POINT('',(-2.75,2.75,1.58771324027147));
#371=CARTESIAN_POINT('Ctrl Pts',(-2.75,2.75,-1.58771324027147));
#372=CARTESIAN_POINT('Ctrl Pts',(-2.75,2.29166666666666,0.));
#373=CARTESIAN_POINT('Ctrl Pts',(-2.75,2.75,1.58771324027147));
#374=CARTESIAN_POINT('',(0.,2.75,-3.17542648054294));
#375=CARTESIAN_POINT('Ctrl Pts',(7.14875313417174E-16,2.75,-3.17542648054294));
#376=CARTESIAN_POINT('Ctrl Pts',(-1.375,2.29166666666667,-2.38156986040721));
#377=CARTESIAN_POINT('Ctrl Pts',(-2.75,2.75,-1.58771324027147));
#378=CARTESIAN_POINT('',(2.75,2.75,-1.58771324027147));
#379=CARTESIAN_POINT('Ctrl Pts',(2.75,2.75,-1.58771324027147));
#380=CARTESIAN_POINT('Ctrl Pts',(1.375,2.29166666666667,-2.38156986040721));
#381=CARTESIAN_POINT('Ctrl Pts',(-2.38291771139058E-16,2.75,-3.17542648054294));
#382=CARTESIAN_POINT('',(2.75,2.75,1.58771324027147));
#383=CARTESIAN_POINT('Ctrl Pts',(2.75,2.75,1.58771324027147));
#384=CARTESIAN_POINT('Ctrl Pts',(2.75,2.29166666666667,-7.7715611723761E-16));
#385=CARTESIAN_POINT('Ctrl Pts',(2.75,2.75,-1.58771324027147));
#386=CARTESIAN_POINT('',(2.22044604925031E-16,2.75,3.17542648054294));
#387=CARTESIAN_POINT('Ctrl Pts',(-1.19145885569529E-15,2.75,3.17542648054294));
#388=CARTESIAN_POINT('Ctrl Pts',(1.375,2.29166666666667,2.38156986040721));
#389=CARTESIAN_POINT('Ctrl Pts',(2.75,2.75,1.58771324027147));
#390=CARTESIAN_POINT('Ctrl Pts',(-2.75,2.75,1.58771324027147));
#391=CARTESIAN_POINT('Ctrl Pts',(-1.375,2.29166666666666,2.38156986040721));
#392=CARTESIAN_POINT('Ctrl Pts',(5.24241896505928E-15,2.75,3.17542648054294));
#393=CARTESIAN_POINT('',(0.,2.5,-2.74241377865072));
#394=CARTESIAN_POINT('Origin',(0.,2.5,0.));
#395=CARTESIAN_POINT('Origin',(0.,2.5,-2.57870688932536));
#396=CARTESIAN_POINT('',(0.,2.5,-2.415));
#397=CARTESIAN_POINT('Origin',(0.,2.5,0.));
#398=CARTESIAN_POINT('Origin',(0.,2.25,0.));
#399=CARTESIAN_POINT('Origin',(0.,4.375,0.));
#400=CARTESIAN_POINT('',(-2.75,4.25,1.58771324027147));
#401=CARTESIAN_POINT('',(-2.75,4.25,-1.58771324027147));
#402=CARTESIAN_POINT('Ctrl Pts',(-2.75,4.25,1.58771324027147));
#403=CARTESIAN_POINT('Ctrl Pts',(-2.75,4.70833333333333,0.));
#404=CARTESIAN_POINT('Ctrl Pts',(-2.75,4.25,-1.58771324027147));
#405=CARTESIAN_POINT('',(2.22044604925031E-16,4.25,3.17542648054294));
#406=CARTESIAN_POINT('Ctrl Pts',(4.76583542278116E-15,4.25,3.17542648054294));
#407=CARTESIAN_POINT('Ctrl Pts',(-1.375,4.70833333333333,2.38156986040721));
#408=CARTESIAN_POINT('Ctrl Pts',(-2.75,4.25,1.58771324027147));
#409=CARTESIAN_POINT('',(2.75,4.25,1.58771324027147));
#410=CARTESIAN_POINT('Ctrl Pts',(2.75,4.25,1.58771324027147));
#411=CARTESIAN_POINT('Ctrl Pts',(1.375,4.70833333333333,2.3815698604072));
#412=CARTESIAN_POINT('Ctrl Pts',(-4.76583542278116E-16,4.25,3.17542648054294));
#413=CARTESIAN_POINT('',(2.75,4.25,-1.58771324027147));
#414=CARTESIAN_POINT('Ctrl Pts',(2.75,4.25,-1.58771324027147));
#415=CARTESIAN_POINT('Ctrl Pts',(2.75,4.70833333333333,-7.7715611723761E-16));
#416=CARTESIAN_POINT('Ctrl Pts',(2.75,4.25,1.58771324027147));
#417=CARTESIAN_POINT('',(0.,4.25,-3.17542648054294));
#418=CARTESIAN_POINT('Ctrl Pts',(4.76583542278116E-16,4.25,-3.17542648054294));
#419=CARTESIAN_POINT('Ctrl Pts',(1.375,4.70833333333333,-2.38156986040721));
#420=CARTESIAN_POINT('Ctrl Pts',(2.75,4.25,-1.58771324027147));
#421=CARTESIAN_POINT('Ctrl Pts',(-2.75,4.25,-1.58771324027147));
#422=CARTESIAN_POINT('Ctrl Pts',(-1.375,4.70833333333333,-2.38156986040721));
#423=CARTESIAN_POINT('Ctrl Pts',(9.53167084556232E-16,4.25,-3.17542648054294));
#424=CARTESIAN_POINT('',(0.,4.5,-2.74241377865072));
#425=CARTESIAN_POINT('Origin',(0.,4.5,0.));
#426=CARTESIAN_POINT('Origin',(4.61654904936952E-16,0.,-3.17542648054294));
#427=CARTESIAN_POINT('',(4.61654904936952E-16,0.,-3.17542648054294));
#428=CARTESIAN_POINT('',(2.75,0.,-1.58771324027147));
#429=CARTESIAN_POINT('Origin',(-2.75,0.,-1.58771324027147));
#430=CARTESIAN_POINT('',(-2.75,0.,-1.58771324027147));
#431=CARTESIAN_POINT('Origin',(0.,4.32,-0.2125));
#432=CARTESIAN_POINT('',(0.,4.32,-0.275));
#433=CARTESIAN_POINT('Origin',(0.,4.32,0.));
#434=CARTESIAN_POINT('Origin',(0.,4.37,0.));
#435=CARTESIAN_POINT('',(0.,4.42,-0.275));
#436=CARTESIAN_POINT('Origin',(0.,4.42,0.));
#437=CARTESIAN_POINT('Origin',(0.,4.42,-0.39));
#438=CARTESIAN_POINT('',(0.,4.42,-0.505));
#439=CARTESIAN_POINT('Origin',(0.,4.42,0.));
#440=CARTESIAN_POINT('Origin',(0.,4.46,0.));
#441=CARTESIAN_POINT('',(0.,4.5,-0.505));
#442=CARTESIAN_POINT('Origin',(0.,4.5,0.));
#443=CARTESIAN_POINT('Origin',(-2.75,0.,1.58771324027147));
#444=CARTESIAN_POINT('',(-2.75,0.,1.58771324027147));
#445=CARTESIAN_POINT('Origin',(2.75,0.,-1.58771324027147));
#446=CARTESIAN_POINT('',(2.75,0.,1.58771324027147));
#447=CARTESIAN_POINT('Origin',(2.75,0.,1.58771324027147));
#448=CARTESIAN_POINT('',(2.50737246408453E-15,0.,3.17542648054294));
#449=CARTESIAN_POINT('Origin',(2.50737246408453E-15,0.,3.17542648054294));
#450=CARTESIAN_POINT('Origin',(5.55111512312578E-16,4.5,-9.11728605070962E-16));
#451=CARTESIAN_POINT('Origin',(2.3176594049233E-17,0.,1.92284845647622E-31));
#452=UNCERTAINTY_MEASURE_WITH_UNIT(LENGTH_MEASURE(0.001),#456,
'DISTANCE_ACCURACY_VALUE',
'Maximum model space distance between geometric entities at asserted c
onnectivities');
#453=UNCERTAINTY_MEASURE_WITH_UNIT(LENGTH_MEASURE(1.E-6),#457,
'DISTANCE_ACCURACY_VALUE',
'Maximum model space distance between geometric entities at asserted c
onnectivities');
#454=(
GEOMETRIC_REPRESENTATION_CONTEXT(3)
GLOBAL_UNCERTAINTY_ASSIGNED_CONTEXT((#452))
GLOBAL_UNIT_ASSIGNED_CONTEXT((#456,#460,#458))
REPRESENTATION_CONTEXT('','3D')
);
#455=(
GEOMETRIC_REPRESENTATION_CONTEXT(3)
GLOBAL_UNCERTAINTY_ASSIGNED_CONTEXT((#453))
GLOBAL_UNIT_ASSIGNED_CONTEXT((#457,#460,#458))
REPRESENTATION_CONTEXT('','3D')
);
#456=(
LENGTH_UNIT()
NAMED_UNIT(*)
SI_UNIT(.CENTI.,.METRE.)
);
#457=(
LENGTH_UNIT()
NAMED_UNIT(*)
SI_UNIT(.MILLI.,.METRE.)
);
#458=(
NAMED_UNIT(*)
SI_UNIT($,.STERADIAN.)
SOLID_ANGLE_UNIT()
);
#459=DIMENSIONAL_EXPONENTS(0.,0.,0.,0.,0.,0.,0.);
#460=(
CONVERSION_BASED_UNIT('degree',#462)
NAMED_UNIT(#459)
PLANE_ANGLE_UNIT()
);
#461=(
NAMED_UNIT(*)
PLANE_ANGLE_UNIT()
SI_UNIT($,.RADIAN.)
);
#462=PLANE_ANGLE_MEASURE_WITH_UNIT(PLANE_ANGLE_MEASURE(0.01745329252),#461);
#463=SHAPE_DEFINITION_REPRESENTATION(#464,#465);
#464=PRODUCT_DEFINITION_SHAPE('',$,#467);
#465=SHAPE_REPRESENTATION('',(#266),#454);
#466=PRODUCT_DEFINITION_CONTEXT('part definition',#471,'design');
#467=PRODUCT_DEFINITION('31428W','31428W',#468,#466);
#468=PRODUCT_DEFINITION_FORMATION('',$,#473);
#469=PRODUCT_RELATED_PRODUCT_CATEGORY('31428W','31428W',(#473));
#470=APPLICATION_PROTOCOL_DEFINITION('international standard',
'automotive_design',2009,#471);
#471=APPLICATION_CONTEXT(
'Core Data for Automotive Mechanical Design Process');
#472=PRODUCT_CONTEXT('part definition',#471,'mechanical');
#473=PRODUCT('31428W','31428W',$,(#472));
#474=PRESENTATION_STYLE_ASSIGNMENT((#476));
#475=PRESENTATION_STYLE_ASSIGNMENT((#477));
#476=SURFACE_STYLE_USAGE(.BOTH.,#478);
#477=SURFACE_STYLE_USAGE(.BOTH.,#479);
#478=SURFACE_SIDE_STYLE($,(#480));
#479=SURFACE_SIDE_STYLE($,(#481));
#480=SURFACE_STYLE_FILL_AREA(#482);
#481=SURFACE_STYLE_FILL_AREA(#483);
#482=FILL_AREA_STYLE($,(#484));
#483=FILL_AREA_STYLE($,(#485));
#484=FILL_AREA_STYLE_COLOUR($,#486);
#485=FILL_AREA_STYLE_COLOUR($,#487);
#486=COLOUR_RGB('',0.749019607843137,0.749019607843137,0.749019607843137);
#487=COLOUR_RGB('',0.63921568627451,0.63921568627451,0.686274509803922);
ENDSEC;
END-ISO-10303-21;
